top separator

Home

Forum

What's New

Submit a Tab

FAQ

Links

Contact Us

Link to Us

MetalTabs.com logo

Bands

0-9

A

B

C

D

E

F

G

H

I

J

K

L

M

N

O

P

Q

R

S

T

U

V

W

X

Y

Z

Search

What

Where
 

Eibon - "Mirror soul Jesus" Bass Tab

Plain Text Version
More Eibon Tabs

Hits: 2590
Rated: 5.00 out of 5 (1 vote)
Updated: 2004-05-28 10:16:43

 

By:

sendpm.gif

email.gif

Important note
We did our best to reach Eibon and ask for their permission to publish this tab. Unfortunately they did not respond to our requests or we could not find a way to contact them. This tab is available online until Eibon tells us to take it down.


#----------------------------------PLEASE NOTE---------------------------------#
#This file is the author's own work and represents their interpretation of the #
#song. You may only use this file for private study, scholarship, or research. #
#Unless specified otherwise, this is NOT an official tab from the band members.#
#------------------------------------------------------------------------------#

  Visit MetalTabs.com for more metal tablature
  
Band: Eibon
Song: Mirror Soul Jesus
Tab by: Morten Brekstad
E-mail: MortenBrekstad@hotmail.com


Copyright (c) Moonfog productions


\ - Slide down                        / - Slide up



G]--------------------------------------------------------[
D]--------------------------------------------------------[
A]---7---8-5-7---7-----4-4---7---8-5-7---7-----4-3-----1--[  x6
E]-0---0-------0---0-3-----0---0-------0---0-3-----3-2----[


G]--------------------------------------------------------[
D]--------------------------------------------------------[
A]--------------------------------------------------------[  x4
E]-2-2-2-2-2-2-2-2-2-2-2-2-2-2-1-3------------------------[

G]-----------------------------------------------------------------[
D]-----------------------------------------------------------------[
A]-1-1-1-1-1-1-1-1-2-2-2-2-2-2-2-2---------------------------------[
E]---------------------------------2-2-2-2-2-2-2-2-2-2-2-2-2-2-2-2-[

G]-----------------------------------------------------------------[
D]-----------------------------------------------------------------[
A]-----------------1-1-1-1-1---------------------------------------[
E]-3-3-3-3-3-3-3-3-----------1-1-3---------------------------------[

G]--------------------------------------------------------[
D]--------------------------------------------------------[
A]--------------------------------------------------------[
E]-2-2-2-2-2-2-2-2-2-2-2-2-1-1-3-3------------------------[

G]--------------------------------------------------------[
D]--------------------------------------------------------[
A]--------------------------------------------------------[  x3
E]-2-2-2-2-2-2-2-2-2-2-2-2-2-2-1-3------------------------[

G]-----------------------------------------------------------------[
D]-----------------------------------------------------------------[
A]-1-1-1-1-1-1-1-1-2-2-2-2-2-2-2-2---------------------------------[
E]---------------------------------2-2-2-2-2-2-2-2-2-2-2-2-2-2-2-2-[

G]-----------------------------------------------------------------[
D]-----------------------------------------------------------------[
A]-----------------1-1-1-1-1-1-1-1---------------------------------[
E]-3-3-3-3-3-3-3-3-------------------------------------------------[


G]--------------------------------[
D]----------------------------5---[
A]----7\5-7-6--------7\5-7-6------[  x4
E]-0-----------3--0---------------[


G]-----------------------------------------------------------------[
D]-----------------------------------------------------------------[
A]------------------------------------------1----------------------[  x4
E]-0-2-2-0-3\2/3\2-2-1--0-2-2-0-3\2/3\2-2-1------------------------[


G]--------------------------------------------------------[
D]--------------------------------------------------------[
A]--------------------------------------------------------[  x4
E]-2-2-2-2-2-2-2-2-2-2-2-2-2-2-1-3------------------------[

G]-----------------------------------------------------------------[
D]-----------------------------------------------------------------[
A]-1-1-1-1-1-1-1-1-2-2-2-2-2-2-2-2---------------------------------[
E]---------------------------------2-2-2-2-2-2-2-2-2-2-2-2-2-2-2-2-[

G]-----------------------------------------------------------------[
D]-----------------------------------------------------------------[
A]-----------------1-1-1-1-1---------------------------------------[
E]-3-3-3-3-3-3-3-3-----------1-1-3---------------------------------[

G]--------------------------------------------------------[
D]--------------------------------------------------------[
A]--------------------------------------------------------[
E]-2-2-2-2-2-2-2-2-2-2-2-2-1-1-3-3------------------------[

G]--------------------------------------------------------[
D]--------------------------------------------------------[
A]--------------------------------------------------------[  x3
E]-2-2-2-2-2-2-2-2-2-2-2-2-2-2-1-3------------------------[

G]-----------------------------------------------------------------[
D]-----------------------------------------------------------------[
A]-1-1-1-1-1-1-1-1-2-2-2-2-2-2-2-2---------------------------------[
E]---------------------------------2-2-2-2-2-2-2-2-2-2-2-2-2-2-2-2-[

G]-----------------------------------------------------------------[
D]-----------------------------------------------------------------[
A]-----------------1-1-1-1-1-1-1-1---------------------------------[
E]-3-3-3-3-3-3-3-3-------------------------------------------------[


G]--------------------------------[
D]----------------------------5---[
A]----7\5-7-6--------7\5-7-6------[  x4
E]-0-----------3--0---------------[


G]---------------------------------------------------------[
D]---------------------------------------------------------[ (guitar plays
A]---------------------------------------------4-3-----1---[  whole riff)
E]-0-----------0-----------0-----------0-----3-----3-2-----[


G]---------------------------------------------------------[
D]---------------------------------------------------------[
A]---7---8-5-7---7-----4-4---7---8-5-7---7-----4-3-----1---[  x4
E]-0---0-------0---0-3-----0---0-------0---0-3-----3-2-----[

G]---------------------------------------------------------[
D]---------------------------------------------------------[
A]---7---8-5-7---7-----4-4---7---8-5-7---7-----4-3-----1---[
E]-0---0-------0---0-3-----0---0-------0---0-3-----3-2---0-[


G]--------------------------[
D]--------------------------[
A]---7---8-5-7---7-----4-4--[
E]-0---0-------0---0-3------[


That should be all! Enjoy


(You could probably use this tab with guitar to, `there`s not much difference)

  Visit MetalTabs.com for more metal tablature

bottom separator

Contact Us | Privacy Policy | Disclaimer | Legal Notice
Copyright © 2001-2014 MetalTabs.com. All Rights Reserved.