top separator

Home

Forum

What's New

Submit a Tab

FAQ

Links

Contact Us

Link to Us

MetalTabs.com logo

Bands

0-9

A

B

C

D

E

F

G

H

I

J

K

L

M

N

O

P

Q

R

S

T

U

V

W

X

Y

Z

Search

What

Where
 

Amaran - "Without Stains" Guitar Tab

Plain Text Version
More Amaran Tabs

Hits: 2533
Updated: 2004-06-08 05:14:03

 

By:

sendpm.gif

email.gif

Important note
We did our best to reach Amaran and ask for their permission to publish this tab. Unfortunately they did not respond to our requests or we could not find a way to contact them. This tab is available online until Amaran tells us to take it down.


#----------------------------------PLEASE NOTE---------------------------------#
#This file is the author's own work and represents their interpretation of the #
#song. You may only use this file for private study, scholarship, or research. #
#Unless specified otherwise, this is NOT an official tab from the band members.#
#------------------------------------------------------------------------------#

  Visit MetalTabs.com for more metal tablature
  
Ear-transcriptioned tab of the song "Without Stains"
From the band "Amaran"
From their album "Pristine in bondage"

Copyright (c)  Listenable Records 2004
Version 1.02 - 07/06/2004

Transcribed By CRaKaMoN/x2BoLLo
Email: x2bollo@hotmail.com

Tunned down 2 steps


0:00 - 0:18
Gtr.1 & Gtr. 2
         PM----------|     PM    PM----------|     PM
C ||------------------------------------------------------
G ||------------------------------------------------------
D#||------------------------------------------------------
A#||-4p2---------------4p2---4p2---------------4p2---4p2--
F ||------------------------------------------------------
C ||-----0-0-0-0-0-0-0-----0-----0-0-0-0-0-0-0-----0------

 PM----------|      PM--------------------|
--------------------------------------------||
--------------------------------------------||
--------------------------------------------|| x2
---------------4p2--------------------2-----||
------------------------2-3-2-3-5-3-5---5-3-||
-3-3-3-3-3-3-3------3-5---------------------||


0:18 - 0:31
Gtr. 1 repeats the last riff x2

Gtr. 2 (Solo 1)
||-19b21--20b22r20---19-17-19-15----15---------12-14-15-
||-------------------------------15-----15\-------------
||------------------------------------------------------
||------------------------------------------------------
||------------------------------------------------------
||------------------------------------------------------

14-15-17-15-17-19-17-19-20-19-17----17-----------------------------
---------------------------------20----20-19-20-19-17-19-17--------
------------------------------------------------------------19-----
---------------------------------------------------------------17--
-------------------------------------------------------------------
-------------------------------------------------------------------

--------------------------||
--------------------------||
-14----14b16--14----------||
----17-----------16-14----||
--------------------------||
--------------------------||


0:31 - 0:55
Gtr. 1 & Gtr. 2
      PM----------|     PM    PM----------|
||----------------------------------------------------
||----------------------------------------------------
||----------------------------------------------------
||-4p2---------------4p2---4p2---------------4p2------
||----------------------------------------------------
||-----0-0-0-0-0-0-0-----0-----0-0-0-0-0-0-0-----0----

|Gtr. 1
----------------------------------------------------------------||
----------------------------------------------------------------||
-7--------------------------------12----------------------------||
-7--------------------------------12----------------------------||
-5--------------------------------10----------------------------||
----------------------------------------------------------------||
|                                                                || x3
|Gtr. 2                                                                ||
----------------------------------------------------------------||
----------------------------------------------------------------||
-11-11-11-11-11-11-11-11-11-11-11S12-12-12-12-12-12-12-12-12----||
----------------------------------------------------------------||
--9--9--9--9--9--9--9--9--9--9--9S10-10-10-10-10-10-10-10-10----||
----------------------------------------------------------------||


0:55 - 1:07
Gtr. 1
||---------------------------------------------------------------------||
||---------------------------------------------------------------------||
||-15--------------15---------------16--------------16-----------------|| x2
||-------16--------------16---------------17----------------17---------||
||-------------16--------------16---------------17----------------17---||
||---------------------------------------------------------------------||

Gtr. 2
||-------------------------------------------------------------------------||
||----------------------------------------------14-------------------------||
||----------15----------------16----------------------------------16-------||x4
||-14-16-17----17-16-14-16-17----17-16-14-16-17----17-16-14-16-17----17-16-||
||-------------------------------------------------------------------------||
||-------------------------------------------------------------------------||


1:07
Gtr. 1 & Gtr. 2
||--------------||
||--------------||
||-11-11-11-11--||
||-11-11-11-11--||
||--9--9--9--9--||
||--------------||


1:09 - 1:33
Gtr.1 & Gtr. 2 (Play this chords repeatly)
||---------------------------------------|      |-------||
||---------------------------------------|      |-------||
||-11----12-11-9-8----9-8-6-5------------| x2   |---9---||
||-------------------------------4-5-7---|      |---9---||
||--9----10--9-7-6----7-6-4-3------------|      |---7---||
||-------------------------------2-3-5---|      |-------||


1:34 - 1:46
Gtr.1 & Gtr. 2
         PM----------|     PM    PM----------|     PM
C ||------------------------------------------------------
G ||------------------------------------------------------
D#||------------------------------------------------------
A#||-4p2---------------4p2---4p2---------------4p2---4p2--
F ||------------------------------------------------------
C ||-----0-0-0-0-0-0-0-----0-----0-0-0-0-0-0-0-----0------

 PM----------|      PM--------------------|
--------------------------------------------||
--------------------------------------------||
--------------------------------------------|| x2
---------------4p2--------------------2-----||
------------------------2-3-2-3-5-3-5---5-3-||
-3-3-3-3-3-3-3------3-5---------------------||


1:37 - 2:10
Gtr. 1 & Gtr. 2
      PM----------|     PM    PM----------|
||----------------------------------------------------
||----------------------------------------------------
||----------------------------------------------------
||-4p2---------------4p2---4p2---------------4p2------
||----------------------------------------------------
||-----0-0-0-0-0-0-0-----0-----0-0-0-0-0-0-0-----0----

|Gtr. 1
----------------------------------------------------------------||
----------------------------------------------------------------||
-7--------------------------------12----------------------------||
-7--------------------------------12----------------------------||
-5--------------------------------10----------------------------||
----------------------------------------------------------------||
|                                                               || x4
|Gtr. 2                                                         ||
----------------------------------------------------------------||
----------------------------------------------------------------||
-11-11-11-11-11-11-11-11-11-11-11S12-12-12-12-12-12-12-12-12----||
----------------------------------------------------------------||
--9--9--9--9--9--9--9--9--9--9--9S10-10-10-10-10-10-10-10-10----||
----------------------------------------------------------------||


2:11 - 2:34
Gtr.1 & Gtr. 2 (Play this chords repeatly)
||---------------------------------------|      |-------||
||---------------------------------------|      |-------||
||-11----12-11-9-8----9-8-6-5------------| x2   |-------||
||-------------------------------4-5-7---|      |---7---||
||--9----10--9-7-6----7-6-4-3------------|      |---7---||
||-------------------------------2-3-5---|      |---5---||


2:35 - 2:53
Gtr. 1
||------------------------------------------------||
||------------------------------------------------||
||------------------------------------------------||
||--12-10--9-10--9-7-10~---12-10--9-10--9-7--9~---||
||------------------------------------------------||
||------------------------------------------------||
|                                                 ||
|                                                 || x4
|Gtr. 2                                           ||
||------------------------------------------------||
||------------------------------------------------||
||------------------------------------------------||
||--14-12-10-12-10-9-10~---14-12-10-12-10-9-12~---||
||------------------------------------------------||
||------------------------------------------------||


2:53 - 3:17
Gtr. 1
   PM---------------------|
||--------------------------||
||--------------------------||
||--------------------------|| x8
||--------------------------||
||--------------------------||
||-0-2-3-3-3-2--0-2-3-2-0-0-||


Gtr. 2
||----------------------------------------------------------------||
||----------------------------------------------------------------||
||-/12-12-12-12-12-12--11--11-11-11-11--/12-12-12-12-12-12--6-6-6-|| x4
||----------------------------------------------------------------||
||-/10-10-10-10-10-10---9---9--9--9--9--/10-10-10-10-10-10--4-4-4-||
||----------------------------------------------------------------||


3:18 - 3:41 Solo 2, first part.
Gtr. 1
   PM---------------------|
||-----------------------------||
||-----------------------------||
||-----------------------------|| x8
||-----------------------------||
||-----------------------------||
||-0-2-3-3-3-2--0-2-3-2-0-0----||

Gtr. 2
||-------------------------------------------------------------------------
||--------14-15------------------------------------------------------------
||-16b18--------16-16b18--16-15-16p15-12-15p12-11-12p11-9-11p9-7-9-7-6-7-6-
||-------------------------------------------------------------------------
||-------------------------------------------------------------------------
||-------------------------------------------------------------------------

------------------------------------------------------------------------
---------------------------------------------------14-15----------14-15-
-7-9-7-6-7-6----6---------------------------16b18--------16-16b18-------
--------------9---9-8-9-8-5-5-5S4-4-4-4\--------------------------------
------------------------------------------------------------------------
------------------------------------------------------------------------

               T               T               T
-12b14--12h14-18b19r18p14p12h14-21b22r21p14p12h14-24b26r14p14p12h14-
--------------------------------------------------------------------
--------------------------------------------------------------------
--------------------------------------------------------------------
--------------------------------------------------------------------
--------------------------------------------------------------------

  T
-15p14p12s10h12p10s9----------||
---------------------12-11~---||
------------------------------||
------------------------------||
------------------------------||
------------------------------||


3:42 - 3:56 Solo 2, second part
Gtr. 1
||------------------------------------------------------------||
||------------------------------------------------------------||
||------------------------------------------------------------||
||-4--6--7--9--11--12---------4--6--7--9--11--12---12---12----||
||-2--4--5--7---9--10--8--5---2--4--5--7---9--10---10---10----||
||---------------------6--3-----------------------------------||


Gtr. 2
||-10p7-------9-12p9---------10-14p10----------12-15p12----------
||------8---8--------10---10----------12----12----------13----13-
||--------7-------------9----------------11----------------12----
||---------------------------------------------------------------
||---------------------------------------------------------------
||---------------------------------------------------------------

-14-17p14----------15-19p15------------9p6-------3-7p3-------
----------15----15----------17-------------7---7-------5-----
-------------14----------------16------------6-----------4~--
----------------------------------17\------------------------
-------------------------------------------------------------
-------------------------------------------------------------

-10p7-------9-12p9---------10-14p10-----------12-15p12-----------
------8---8--------10---10----------12-----12----------13----13--
--------7-------------9----------------11-----------------12-----
-----------------------------------------------------------------
-----------------------------------------------------------------
-----------------------------------------------------------------

-14-17p14----------15-19p15----------15-19p15----------
----------15----15----------17----17----------17----17-
-------------14----------------16----------------16----
-------------------------------------------------------
-------------------------------------------------------
-------------------------------------------------------

-15-19p15----------15-19p15----------15-19p15---------||
----------17----17----------17----17----------17------||
-------------16----------------16----------------16~--||
------------------------------------------------------||
------------------------------------------------------||
------------------------------------------------------||


3:56 - 4:43
Gtr.1 & Gtr. 2 (Play this chords repeatly)
||---------------------------------------|
||---------------------------------------|
||-11----12-11-9-8----9-8-6-5------------| x4
||-------------------------------4-5-7---|
||--9----10--9-7-6----7-6-4-3------------|
||-------------------------------2-3-5---|


4:44 - 5:13
Gtr.1 & Gtr. 2
         PM----------|     PM    PM----------|     PM
C ||------------------------------------------------------
G ||------------------------------------------------------
D#||------------------------------------------------------
A#||-4p2---------------4p2---4p2---------------4p2---4p2--
F ||------------------------------------------------------
C ||-----0-0-0-0-0-0-0-----0-----0-0-0-0-0-0-0-----0------

 PM----------|      PM--------------------|
--------------------------------------------||
--------------------------------------------||
--------------------------------------------|| x4
---------------4p2--------------------2-----||
------------------------2-3-2-3-5-3-5---5-3-||
-3-3-3-3-3-3-3------3-5---------------------||

  PM--------------------|
|--------------------------------|
|--------------------------------|
|--------------------------------|
|-------------------2-------2----|
|-----2-3-2-3-5-3-5---5-3---2----|
|-3-5-----------------------0----|



Tablature Legend
----------------
 h   - hammer-on
 p   - pull-off
 b   - bend
 pb  - pre-bend
 r   - bend release (if no number after the r, then release immediately)
 /\  - slide into or out of (from/to "nowhere")
 s   - legato slide
 S   - shift slide
<n>  - natural harmonic
[n]  - artificial harmonic
n(n) - tapped harmonic
 ~   - vibrato
 tr  - trill
 T   - tap
 TP  - trem. picking
 PM  - palm muting
\n/  - tremolo bar dip; n = amount to dip
 \n  - tremolo bar down
 n/  - tremolo bar up
/n\  - tremolo bar inverted dip
 =   - hold bend; also acts as connecting device for hammers/pulls
 <>  - volume swell (louder/softer)
 x   - on rhythm slash represents muted slash
 o   - on rhythm slash represents single note slash

  Visit MetalTabs.com for more metal tablature

bottom separator

Contact Us | Privacy Policy | Disclaimer | Legal Notice
Copyright © 2001-2014 MetalTabs.com. All Rights Reserved.