#----------------------------------PLEASE NOTE---------------------------------#
#This file is the author's own work and represents their interpretation of the #
#song. You may only use this file for private study, scholarship, or research. #
#Unless specified otherwise, this is NOT an official tab from the band members.#
#------------------------------------------------------------------------------#

  Visit MetalTabs.com for more metal tablature
  
Artist: Cadaver Inc.
Album: Discipline
Song: Die Like This

Copyright (c) (Earache) (2001)

Tabbed By: Henry Casas (BaneOfExistance@aol.com)

Tuning EADGBE

Riff 1
Guitar 1

E|-----------------------------------|
B|-----------------------------------|
G|-------2------2------5----------|
D|-362--362--695--6925--|
A|-----------------------------------|
E|-----------------------------------|

Guitar 2

E|-----------------------------------|
B|-----------------------------------|
G|-----------------------------------|
D|-3---7-3---7-6---10-6-2-5-|
A|-3----7--3----7--6----8---6--2--5--|
E|-1----5--1----5--4----8---4--0--3--|

Riff 2

E|-----------------------------------|
B|-----------------------------------|
G|-----------------------------------|
D|-3---7-3---7-6---10-6-2-5-|
A|-3----7--3----7--6----8---6--2--5--|
E|-1----5--1----5--4----8---4--0--3--|

Riff 3

E|-------------------|
B|-------------------|
G|-------------------|
D|-76----------------|
A|-76-87-----------|
E|-54-----1096----|



Riff 4

E|------------------|
B|------------------|
G|------------------|
D|-23-------------|
A|-2-3-43---------|
E|-0-1-----652---|

Riff 5

E|----------|
B|----------|
G|----------|
D|-45-------|
A|-45--3-4--|
E|-23-2-2---|
      . .
Riff 6

E|---------------|
B|---------------|
G|---------------|
D|-45-44/8-4/8---|
A|-45-44/8-4/8---|
E|-23-22/6-2/6---|

Riff 7
Guitar 1

E|--------------------|
B|--------------------|
G|----2---2---5-------|
D|-362-362-695-6925---|
A|--------------------|
E|--------------------|

Guitar 2
E|--------------------|
B|--------------------|
G|--------------------|
D|-(3)-----(6)-(2)(5)-|
A|-(3)-----(6)-(2)(5)-|
E|-(1)-----(4)-(0)(3)-|


Riff 8

E|-------------------|
B|-------------------|
G|-------------------|
D|-------------------|
A|----0---0---3------|
E|-140-140-463-4603--|

  Visit MetalTabs.com for more metal tablature