top separator

Home

Forum

What's New

Submit a Tab

FAQ

Links

Contact Us

Link to Us

MuSpy.com

MetalTabs.com logo

Bands

0-9

A

B

C

D

E

F

G

H

I

J

K

L

M

N

O

P

Q

R

S

T

U

V

W

X

Y

Z

Search

What

Where
 

Cadaver - "Rupture" Guitar Tab

Plain Text Version
More Cadaver Tabs

Hits: 3140
Rated: 5.00 out of 5 (2 votes)
Updated: 2004-05-27 14:09:44

 

By:

sendpm.gif

email.gif

Important note
This tab is available online because we obtained explicit permission from Cadaver or their label.


#----------------------------------PLEASE NOTE---------------------------------#
#This file is the author's own work and represents their interpretation of the #
#song. You may only use this file for private study, scholarship, or research. #
#Unless specified otherwise, this is NOT an official tab from the band members.#
#------------------------------------------------------------------------------#

  Visit MetalTabs.com for more metal tablature
  
Artist: Cadaver Inc.
Album: Discipline
Song: Rupture
Copyright (c) (Earache) (2001)
Tabbed by: Henry Casas (BaneOfExistance@aol.com)

.  - Palm mute           /  - slide up to
\  - Slide down to       ~  - vibrato
h  - hammer on           b  - Bend
p  - pull off            Suffixes for bend
t  - tap                 f  - full bend    h - half bend
Ph - pinched harmonic    q  - quarter bend t - tap bend
*  - See comment         ^  - Hold bend    r release bend
x  - Stuccatto           ~  - vibrato bend
,  - Slight palm mute    () - ghost note, sustained note
"  - Tremolo note        <> - Trill

Tuning EADGBE

Riff 1

E|-------------------------------|
B|-------------------------------|
G|-------------------------------|
D|--------------------1/2--------|
A|-----10----10----10-1/2---21---|
E|-0222--0222--0222--0---032--0--|
                         ......
Riff 2                                Fill 1

E|---------------------|-----------------|
B|---------------------|-----------------|
G|---------------------|-----------------|
D|---------------------|-----------------|
A|---------------------|---(1)-----------|
E|-0220h11110553h4444--|-(4)-(4)(1)/(6)--|
    ..   ......   ...
Riff 3

E|----------------------------------|
B|----------------------------------|
G|----------------------------------|
D|-----6”----6”----6”----6”---------|
A|-----------------------------5”---|
E|-4”5”--4”5”--4”5”--4”5”--6”5”-6”--|

Riff 4

E|---------------------------|
B|---------------------------|
G|---------------------------|
D|-777777777733333333333333--|
A|-555557777733333333333333--|
E|-555555555511111111111111--|

Riff 5

E|--------------------|
B|--------------------|
G|--------------------|
D|-22999988888888888--|
A|-22777788888888888--|
E|-00777766666666666--|

Riff 6

E|--------------------------------------------------|
B|--------------------------------------------------|
G|--------------------------------------------------|
D|--------1/2------1/2------1/2------1/2------1/2---|
A|-----10-1/2---21-1/2---21-1/2---21-1/2---21-1/2---|
E|-0222--0---032--0---032--0---032--0---032--0------|
             ......   ......   ......   ......
Song Structure
Riff 1x4
Riff 2x4
Riff 1x4
Riff 2x4 (last time with fill)
Riff 3x4
Riff 4x4
Riff 5x4
Riff 3x4
Riff 4x4
Riff 5x4
Riff 6x1

That there is basically a kickass song,
some parts may seem confusing on this tab,
but once you listen to the song and try to play it,
it’s much easier.

  Visit MetalTabs.com for more metal tablature

bottom separator

Contact Us | Privacy Policy | Disclaimer | Legal Notice
Copyright © 2001-2014 MetalTabs.com. All Rights Reserved.