top separator

Home

Forum

What's New

Submit a Tab

FAQ

Links

Contact Us

Link to Us

MuSpy.com

MetalTabs.com logo

Bands

0-9

A

B

C

D

E

F

G

H

I

J

K

L

M

N

O

P

Q

R

S

T

U

V

W

X

Y

Z

Search

What

Where
 

Crowbar - "Negative Pollution" Guitar Tab

Plain Text Version
More Crowbar Tabs

Hits: 3977
Updated: 2004-05-26 16:49:44

 

By:

Father Death

sendpm.gif

email.gif

Important note
This tab is available online because we obtained explicit permission from Crowbar or their label.


#----------------------------------PLEASE NOTE---------------------------------#
#This file is the author's own work and represents their interpretation of the #
#song. You may only use this file for private study, scholarship, or research. #
#Unless specified otherwise, this is NOT an official tab from the band members.#
#------------------------------------------------------------------------------#

  Visit MetalTabs.com for more metal tablature
  
Band:  CROWBAR
Album: Crowbar
Song:  Negative Pollution

Transcribed by:        Chris Humeniuk
Email:  father_death_666@hotmail.com

Tuning: 2.5 steps down

Keys:
 ___ - palm mute
 / \ - slide


RIFF A:

|-------------------------------|
|-------------------------------|
|-------------------------------|
|---------8----------8-10-9--9--|
|---------6----------6--8-7--9--|
|-0-6-5-0-6--0-6-5-0-6--8-7--7--| 8x


RIFF B:

|----------------------------------------------------------------------
|----------------------------------------------------------------------
|----------------------------------------------------------------------
|-2--------------5--5---4-5------------------4----4----5----8----------
|-2--------------3--3-3-2-5---3-3-3--2-3-3---2----2----3----6----------
|-0------------0----------3---1-1-1--0-1-1-0----0----0----0-6--000-000-
               _      _       _____  _______    _    _    _    _______

 -----------------------------|     |---------------|
 -----------------------------|     |---------------|
 -----------------------------|     |---------------|
 ---4----4----5----8----------|     |-5----4--3--5--|
 ---2----2----3----6----------|     |-3----4--3--5--|
 -0----0----0----0-6--000-000-| 2x  |-3----2--1--3--|
  _    _    _    _    _______


RIFF A - 4x


RIFF B


RIFF A - 4x


RIFF C:

|-----------------------------------------------------------------------------|
|-----------------------------------------------------------------------------|
|-----------------------------------------------------------------------------|
|-3------2--5--4----3---2---5--4--8-8-8\-3------2--5--4----3---2---5--4--5--4-|
|-3------2--3--2----3---2---3--2--6-6-6\-3------2--3--2----3---2---3--2--5--4-|
|-1------0--3--2----1---0---3--2--6-6-6\-1------0--3--2----1---0---3--2--3--2-|
                                                                          2x

OUTRO:
(slow)
|-----------------------|     |-----------------------------|
|-----------------------|     |-----------------------------|
|-----------------------|     |-----------------------------|
|---4----4----5----8----|     |---4----4----5----8----------|
|---2----2----3----6----|     |---2----2----3----6----2---2-|
|-0----0----0----0-6----| 5x  |-0----0----0----0-6--000-000-|
  _    _    _    _              _    _    _    _    ___ ___

  Visit MetalTabs.com for more metal tablature

bottom separator

Contact Us | Privacy Policy | Disclaimer | Legal Notice
Copyright © 2001-2014 MetalTabs.com. All Rights Reserved.