top separator

Home

Forum

What's New

Submit a Tab

FAQ

Links

Contact Us

Link to Us

MuSpy.com

MetalTabs.com logo

Bands

0-9

A

B

C

D

E

F

G

H

I

J

K

L

M

N

O

P

Q

R

S

T

U

V

W

X

Y

Z

Search

What

Where
 

Grave - "Behold The Flames" Guitar Tab

Plain Text Version
More Grave Tabs

Hits: 2736
Rated: 3.50 out of 5 (2 votes)
Updated: 2004-05-26 16:48:53

 

By:

sendpm.gif

email.gif

Important note
We did our best to reach Grave and ask for their permission to publish this tab. Unfortunately they did not respond to our requests or we could not find a way to contact them. This tab is available online until Grave tells us to take it down.


#----------------------------------PLEASE NOTE---------------------------------#
#This file is the author's own work and represents their interpretation of the #
#song. You may only use this file for private study, scholarship, or research. #
#Unless specified otherwise, this is NOT an official tab from the band members.#
#------------------------------------------------------------------------------#

  Visit MetalTabs.com for more metal tablature
  
Made by: The Wicked One (Germany)
Contact: wicked-jack@freenet.de

================================================================================

Hey you metalheads!

I’d like to tab some songs of Grave’s 2002 comeback album “Back from the grave”.
I like Grave very much and “B.f.t.g.” has some cool songs and a lot of groove.
So I tabbed my favourite songs by now and here they are. The album’s guitar
sound fits good but sometimes made it difficult to figure out. But I think you
can play the songs with this... only problem now is not to get lost within my
tab... ;-D

“Behold the flames” has a cool groove and its riffs change often – but I think
you’ll get that, listen to the song and you’ll see...

Enjoy and raise a little hell!


Notation:
/      =  slide up                        \      =  slide down
~      =  vibrato                         ....   =  palm mute
(rest is explained within the tab)

================================================================================
Tuning:  B-Tuning  B-E-A-D-F#-B

Riff 1 A   (4/4 time)                Riff 1 B   (4/4 time)
Gtr I (Left)                         Gtr I (Left)
|+-------+-------+-------+-------|   |+-------+-------+-------+-------|
|--------------------------------|   |--------------------------------|
|--------------------------------|   |--------------------------------|
|------8-9~~---------------------|   |------8-9~~---------------------|
|2-------------------------------|   |2--------------(2)--------------|
|0------------\--0-------8-10-7--|   |0-------------\-0-------8-10-7--|
Gtr II (Right)                       Gtr II (Right)
|+-------+-------+-------+-------|   |+-------+-------+-------+-------|
|--------------------------------|   |--------------------------------|
|--------------------------------|   |--------------------------------|
|------8-9~~---------------------|   |------8-9~~---------------------|
|2-------------------------------|   |2--------------(2)------7-8-5---|
|0-------------------------------|   |0-------------\-0---------------|

Riff 1 C   (4/4 time)
Gtr I (Left)
|+-------+-------+-------+--------|
|---------------------------------|
|---------------------------------|
|------8-9~~----------------------|
|2-------------222--------------2*|   * not played the last time
|0-----------\-000-------8-10-7-0-|
               ..               .
Gtr II (Right)
|+-------+-------+-------+-------|
|--------------------------------|
|--------------------------------|
|------8-9~~---------------------|
|2-------------222-------7-8-5-2*|   * not played the last time
|0-----------\-000-------------0-|
               ..              .

Riff 2   (6/8 time)
|+-----+-----+-----+-----|+-----+-----+-----+-----|
|------------------------|------------------------|
|------------------------|------------------------|
|------------------------|------------------------|   * played as flageolet and
|------------------------|------------------------|     with bending (I think
|0-0-0-6\5-5-0-0-0-3*----|0-0-0-6\5-5-1-1-1-3-3-3-|      so... just try it)
 . . .       . . .        . . .       . . . . . .

Riff 3   (6/8 time)
|+-----+-----+-----+-----|+-----+-----+-----+-----|
|------------------------|------------------------|
|------------------------|------------------------|
|------9~--9~------------|------------------5’--5-|   * played only the third
|2----(7)*(7)*-----4---4-|------3---3-------3’--3-|     time by Gtr I
|0---0-----------0-2---2-|----0-1---1-----0-------|   ‘ stop here the last time
     .           .            .           .

Riff 4 A   (4/4 time)                Riff 4 B   (4/4 time)
Gtr I + II                           Gtr I + II
|+-------+-------+-------+-------|   |+-------+-------+-------+-------|
|--------------------------------|   |--------------------------------|
|--------------------------------|   |--------------------------------|
|--------------------------------|   |--------------------------------|
|3-5---3-5---3-5-2---------------|   |----------------2---------------|
|1-3---1-3---1-3-0---------------|   |11331111331111330---------------|

Bass Line
|+-------+-------+-------+-------|
|--------------------------------|
|--------------------------------|
|--------------------------------|
|1-3---1-3---1-3-0---------------|

Riff 5   (4/4 time)
Gtr I + II
|+-------+-------+-------+-------|   Bass Line
|--------------------------------|   |+-------+-------+-------+-------|
|--------------------------------|   |--------------------------------|
|--------------------------------|   |--------------------------------|
|2-------------------3-----------|   |--------------------------------|
|0--stop-------------1-let-ring--|   |1-3---1-3---1-3-0---1-----------|


Song Order:
(0:00) – Riff 1 A (3x) and Riff 1 B (5x)
(0:37) – Riff 2 (8x)
(1:06) – Riff 3 (4x)
(1:21) – Riff 2 (8x)
(1:50) – Riff 3 (4x)
(2:05) – Riff 1 B (2x)
(2:15) – Riff 1 C (4x)
(2:36) - let B5 ring while bass is playing bass line of Riff 4 (6x)
(2:51) – Riff 4 A (5x) with Solo 1
(3:04) – Riff 4 A (4x)
(3:14) – Riff 1 C (4x)
(3:35) – Riff 4 A (4x) then slide down from 12th fret
(3:48) – Riff 4 A (4x) with Solo 2
(3:58) – Riff 4 A (4x)
(4:08) – Riff 4 B (4x)
(4:19) – Riff 5 (4x)
End on B5

  Visit MetalTabs.com for more metal tablature

bottom separator

Contact Us | Privacy Policy | Disclaimer | Legal Notice
Copyright © 2001-2014 MetalTabs.com. All Rights Reserved.