top separator

Home

Forum

What's New

Submit a Tab

FAQ

Links

Contact Us

Link to Us

MuSpy.com

MetalTabs.com logo

Bands

0-9

A

B

C

D

E

F

G

H

I

J

K

L

M

N

O

P

Q

R

S

T

U

V

W

X

Y

Z

Search

What

Where
 

Grave - "Rise" Guitar Tab

Plain Text Version
More Grave Tabs

Hits: 4103
Rated: 4.33 out of 5 (3 votes)
Updated: 2004-05-26 16:48:44

 

By:

sendpm.gif

email.gif

Important note
We did our best to reach Grave and ask for their permission to publish this tab. Unfortunately they did not respond to our requests or we could not find a way to contact them. This tab is available online until Grave tells us to take it down.


#----------------------------------PLEASE NOTE---------------------------------#
#This file is the author's own work and represents their interpretation of the #
#song. You may only use this file for private study, scholarship, or research. #
#Unless specified otherwise, this is NOT an official tab from the band members.#
#------------------------------------------------------------------------------#

  Visit MetalTabs.com for more metal tablature
  
Made by: The Wicked One (Germany)
Contact: wicked-jack@freenet.de

================================================================================

Hey you metalheads!

I’d like to tab some songs of Grave’s 2002 comeback album “Back from the grave”.
I like Grave very much and “B.f.t.g.” has some cool songs and a lot of groove.
So I tabbed my favourite songs by now and here they are. The album’s guitar
sound fits good but sometimes made it difficult to figure out. But I think you
can play the songs with this... only problem now is not to get lost within my
tab... ;-D

Here's the opener (after the Intro) - "Rise"! Enjoy and raise a little hell!


Notation:
/      =  slide up                        \      =  slide down
~      =  vibrato                         ....   =  palm mute
/  3  \  =  notes between the slashes are triplets
(rest is explained within the tab)

================================================================================
Tuning:  B-Tuning  B-E-A-D-F#-B

Riff 1
|+-------+-------+-------+-------|
|--------------------------------|
|--------------------------------|
|--------------------------------|
|--------------------------------|
|00000033333322220000003333332233|

Riff 2
|+-------+-------+-------+-------|+-------+-------+-------+-------|
|--------------------------------|--------------------------------|
|--------------------------------|--------------------------------|
|--------------------------------|--------------------------------|
|4---------------4---------------|3/4-----------3-----3-3-3/6-----|
|2---2-2-2-2-2-2-2---2-2-2-2-2-2-|----2-2-2-2-2-1-----1-1-1/4-----|
     . . . . . .     . . . . . .      . . . . .       . .

Riff 3
|+-------+-------+-------+-------|
|--------------------------------|
|--------------------------------|
|--------2-----------2-------2---|
|2---2---2-----------2-------2---|
|0---0---1-------0-0-0---0-0-0---|
                 . .     . .

Riff 4
|+-------+-------+-------+-------|+-------+-------+-------+-------|
|----------------/-----3-----\---|--------------------------------|
|--------------------------------|--------------------------------|
|2---------------------3-----2---|4-------------------------------|
|2---------------3-----3-----2---|4-------------------------------|
|0---------------1---------------|2-------pickscrape-down-0-1~----|
                                                          .
Riff 5
|+-------+-------+-------+-------|+-------+-------+-------+-------|
|----------------/-----3-----\---|--------------------------------|
|--------------------------------|----------------/-----3-----\---|
|2---------------------3*----2*--|4-------------------------------|
|2---------------3-----3-----2---|4---------------5*----3*----2*--|
|0---------------1---------------|2---------------5-----3-----2---|

|+-------+-------+-------+-------|+-------+-------+-------+-------|
|----------------/-----3-----\---|--------------------------------|
|--------------------------------|--------------------------------|
|2---------------------3*----2*--|4-------------------------------|
|2---------------3-----3-----2---|4-------------------------------|
|0---------------1---------------|2-----------------------0-3~----|
                                                          .
|+-------+-------+-------+-------|+-------+-------+-------+-------|
|----------------/-----3-----\---|--------------------------------|
|--------------------------------|----------------/-----3-----\---|
|2---------------------3*----2*--|4-------------------------------|
|2---------------3-----3-----2---|4---------------5*----3*----2*--|
|0---------------1---------------|2---------------5-----3-----2---|

|+-------+-------+-------+-------|+-------+-------+-------+-------|
|----------------/-----3-----\---|--------------------------------|
|--------------------------------|--------------------------------|
|2---------------------3*----2*--|4-------------------------------|
|2---------------3-----3-----2---|4-------------------------------|
|0---------------1---------------|2-----------------------0-1~----|
                                                          .
* really not sure about these notes, they sound right, but not that good ;-)
but maybe that also depends on guitar and strings...

Riff 6
|+-------+-------+-------+-------|+-------+-------+-------+-------|
|--------------------------------|--------------------------------|
|--------------------------------|----------------/-----3-----\---|
|2-------------------------------|4-------------------------------|
|2-------------------------------|4---------------5*----3*----2*--|
|0-------------------------------|2---------------5-----3-----2---|

|+-------+-------+-------+-------|+-------+-------+-------+-------|
|--------------------------------|--------------------------------|
|--------------------------------|--------------------------------|
|2-------------------------------|4-------------------------------|
|2-------------------------------|4-------------------------------|
|0-------------------------------|2-----------------------0-3~----|
                                                          .
|+-------+-------+-------+-------|+-------+-------+-------+-------|
|--------------------------------|--------------------------------|
|--------------------------------|----------------/-----3-----\---|
|2-------------------------------|4-------------------------------|
|2-------------------------------|4---------------5*----3*----2*--|
|0-------------------------------|2---------------5-----3-----2---|

|+-------+-------+-------+-------|+-------+-------+-------+-------|
|--------------------------------|--------------------------------|
|--------------------------------|--------------------------------|
|2-------------------------------|4-------------------------------|
|2-------------------------------|4-------------------------------|
|0-------------------------------|2-----------------------0-1~----|
                                                          .

Song Order:
(0:00) – Riff 1 (12x)
(0:31) – Riff 4 (1x)
(0:36) – Riff 1 (8x)
(0:58) – Riff 2 (4x) then short break
(1:21) – Riff 1 (8x)
(1:43) – Riff 2 (4x)
(2:04) – Riff 5 (1x)
(2:25) – Riff 3 (16x) Gtr II (Right) starts at the end of the 4th time
(3:07) – Riff 6 (1x) with Solo
(3:29) – Riff 5 (1x) then short break
(3:51) – Riff 1 (8x)
(4:12) – Riff 3 (16x) Gtr II comes in at the beginning of the 3rd time and
   then starts at the end of the 4th time
End at (4:54) with the beginning of Riff 3 (just listen...)

  Visit MetalTabs.com for more metal tablature

bottom separator

Contact Us | Privacy Policy | Disclaimer | Legal Notice
Copyright © 2001-2014 MetalTabs.com. All Rights Reserved.