top separator

Home

Forum

FAQ

Contact Us

Link to Us

MetalTabs.com logo

Bands

0-9

A

B

C

D

E

F

G

H

I

J

K

L

M

N

O

P

Q

R

S

T

U

V

W

X

Y

Z

Judas Priest - "Night Crawler" Guitar Tab

Plain Text Version
More Judas Priest Tabs

Hits: 15011
Rated: 3.33 out of 5 (6 votes)
Updated: 2004-05-24 05:34:44

By:


#----------------------------------PLEASE NOTE---------------------------------#
#This file is the author's own work and represents their interpretation of the #
#song. You may only use this file for private study, scholarship, or research. #
#Unless specified otherwise, this is NOT an official tab from the band members.#
#------------------------------------------------------------------------------#

  Visit MetalTabs.com for more metal tablature
  
Judas Priest

Song : Night Crawler
Album: Painkiller - 1990

tabbed by Daniel Pilloni ("Daniel_pilloni@Yahoo.com")


Well this is what a can remember of the song.
The last solo canít I remember
"It wasn't me there was playing that part of the song, hehe"

Good luck



INTRO
E|------------------------------
B|------------------------------
G|----9-----9-----9------------- X4
D|---9-----9-----9-9---9--------
A|--7---8-7---5/7-----9-9-------
E|-------------------7----------


RIFF A
E|------------------------------
B|------------------------------
G|------------------------------ X4
D|--9----10-9-----7--9-----7----
A|--7----8--7-----5--7--9--5----
E|----00-------00-------7-------


RIFF B
E|---------------------------------------------------------
B|---------------------------------------------------------
G|--------------------------------------------------------- X2
D|--4-44444444444--2-2222222222-------------------------2--
A|--2-22222222222--0-0000000000----5-4-2-2222--5--2222-----
E|---------------------------------------------------------


RIFF C
E|---------------------------------
B|---------------------------------
G|---------------------------------  X3
D|-----4-----4-----4---------------
A|-----4-----4-----4---------------
E|--00-2--00-2--00-2--00-0-2-3-----


FIFF D
E|-------------------------------------
B|-------------------------------------
G|-------------------------------------
D|-----4-----4-----4-------------3-2-0-
A|-----4-----4-----4------3-2-0--------
E|--00-2--00-2--00-2--00---------------


RIFF F
E|---------------------------------------------------------------
B|---------------------------------------------------------------
G|--------------------------------------------------------------- X4
D|-----4-----5---4----2---4----2---------------------------------
A|--22----22----2---22---2---00---00-4-----4-----5---4----2---4--
E|--------------------------------------22----22----2---22---2---

repeat
RIFF A X4
RIFF B X2
RIFF C X3
RIFF D X1
RIFF F X4


INTRO TO SOLO
E|------------------------------------------------------
B|------------------------------------------------------
G|------------------------------------------------------
D|--9----10-9-----7--9-----7-----3--------------7-9-10--
A|--7----8--7-----5--7--9--5--7--5--3----7-9-10---------
E|----00-------00-------7-----5-----5-------------------


SOLO
E|--------------------------------------------------------
B|--------------------------------------------------------
G|--7-9/11--12-11--9-11----7---7-9-10-7---7-6-4---7-6-4---
D|----------------------9---------------------------------
A|--------------------------------------------------------
E|--------------------------------------------------------

E|--------------------------------------------------------
B|--------------------------------------------------------
G|--9/11--12-11--9-11----7---7-9-10-7---7-6-4---7-6-4-----
D|--------------------9-----------------------------------
A|--------------------------------------------------------
E|--------------------------------------------------------


RIFF G
E|-----------------------------------------------------
B|-----------------------------------------------------
G|-----------------------------------------------------
D|--4--4-4--4---6--6-6--6---8--8-8--8---10--10-10--10--
A|--4--4-4--4---6--6-6--6---8--8-8--8---10--10-10--10--
E|--2--2-3--3---4--4-5--5---6--6-7--7---8---8--9---9---


RIFF C
E|---------------------------------
B|---------------------------------
G|---------------------------------  X3
D|-----4-----4-----4---------------
A|-----4-----4-----4---------------
E|--00-2--00-2--00-2--00-0-2-3-----


FIFF D
E|-------------------------------------
B|-------------------------------------
G|-------------------------------------
D|-----4-----4-----4-------------3-2-0-
A|-----4-----4-----4------3-2-0--------
E|--00-2--00-2--00-2--00---------------


RIFF F
E|---------------------------------------------------------------
B|---------------------------------------------------------------
G|--------------------------------------------------------------- X8
D|-----4-----5---4----2---4----2---------------------------------
A|--22----22----2---22---2---00---00-4-----4-----5---4----2---4--
E|--------------------------------------22----22----2---22---2---


RIFF A
E|------------------------------
B|------------------------------
G|------------------------------ X4
D|--9----10-9-----7--9-----7----
A|--7----8--7-----5--7--9--5----
E|----00-------00-------7-------

  Visit MetalTabs.com for more metal tablature

bottom separator

Contact Us | Privacy Policy | Disclaimer
Copyright © 2001-2014 MetalTabs.com. All Rights Reserved.