top separator

Home

Forum

What's New

Submit a Tab

FAQ

Links

Contact Us

Link to Us

MetalTabs.com logo

Bands

0-9

A

B

C

D

E

F

G

H

I

J

K

L

M

N

O

P

Q

R

S

T

U

V

W

X

Y

Z

Search

What

Where
 

Mithotyn - "Where my spirit orever shall be" Guitar Tab

Plain Text Version
More Mithotyn Tabs

Hits: 2536
Rated: 5.00 out of 5 (1 vote)
Updated: 2004-05-24 05:33:18

 

By:

Daniil

sendpm.gif

email.gif

Important note
This tab is available online because we obtained explicit permission from Mithotyn or their label.


#----------------------------------PLEASE NOTE---------------------------------#
#This file is the author's own work and represents their interpretation of the #
#song. You may only use this file for private study, scholarship, or research. #
#Unless specified otherwise, this is NOT an official tab from the band members.#
#------------------------------------------------------------------------------#

  Visit MetalTabs.com for more metal tablature
  
MITHOTYN-Where My Spirit Forever Shall Be
In The Sign Of The Ravens-1997
Transcribed by Daniil Laletin
"INVASION RECORDS"
e-mail: dlaletin@mail.ru
version 1.0 December 2003

All corrections are welcome.

 " - tremolo
 / - slide down
 \ - slide up
 . - palm mute
 ~ - long sound
 x - rest
 p - pull off
 h - hammer on
 tr - trill
 () - ghost note, sustained note
Intro fill
|---------|
|---------|
|---------|
|---------| 8 times
|-2"------|
|-0"------|


Riff 1
|-------------------------------------------|
|-------------------------------------------|
|-------------------------------------------|
|-5"--7"9"-5"--7"9"7"4"--5"4"2"-4"5"4"------|gtr 1
|-------------------------------------5"----|
|-------------------------------------------|
|
|-------------------------------------------|
|-------------------------------------------|
|-------------------------------------------|
|-------------------------------------------|gtr 2
|-----7"-------7"---------------------------|
|-0"-------0"--------7"------5"-------3"-2"-|



Riff 2
|-------------------------------------|
|-------------------------------------|
|-------------------------------------|
|-9"--7"5"4"5"4"2"4"5"7"9"7"5"4"------|gtr 1
|-------------------------------------|
|-------------------------------------|
|
|-------------------------------------|
|-------------------------------------|
|-------------------------------------|
|-9"------7"-5"-4"-5"--2"--/7"-5"-4"--|gtr 2
|-7"------5"-3"-2"-3"--0"--/5"-3"-2"--|
|-------------------------------------|

|--------------------------------------|
|--------------------------------------|
|--------------------------------------|
|-9"--7"5"4"5"4"2"4"5"7"9"7"545"-------|gtr 1
|--------------------------------------|
|--------------------------------------|
|
|--------------------------------------|
|--------------------------------------|
|--------------------------------------|
|-9"------7"-5"-4"-5"--2"--/7"-5"4"5"--|gtr 2
|-7"------5"-3"-2"-3"--0"--/5"-3"2"3"--|
|--------------------------------------|



Fill 1
|------------|
|------------|
|------------|
|------------|
|-2------(2)-|
|-0------(0)-|



Riff 3
|---------------------------------------------|
|----------------------------------------8-12-|
|---------------------------------------------|
|-9-99-7-5-4-5\2-5-7-5-4-2~-45-7-5-7-9~~------|gtr 1
|---------------------------------------------|
|---------------------------------------------|
|                                              x 2 times
|---------------------------------------------|
|---------------------------------------------|
|---------------------------------------------|
|-9-9--7-7--5-5--7-7--9-9--5-5-77-7-7-77-777--|gtr 2
|-7-7--5-5--3-3--5-5--7-7--3-3-55-5-5-55-555--|
|---------------------------------.-.---------|

|---------------------------------------------------------------|
|-12~-----------------------------------------------------------|
|-----12-11~-9-11-12-11-9-11~--12-11-9-11-12/14-12-11~-11h12p11-|
|---------------------------------------------------------------|gtr 1
|---------------------------------------------------------------|
|---------------------------------------------------------------|
|                                                                x 2 times
|---------------------------------------------------------------|
|---------------------------------------------------------------|
|---------------------------------------------------------------|
|-9-9------7-7------5-5------7-7-----9-9-----5-5-77-7-7-77-777--|gtr 2
|-7-7------5-5------3-3------5-5-----7-7-----3-3-55-5-5-55-555--|
|---------------------------------------------------.-.---------|


Riff 4a
|---------------------------------------------------------------------|
|---------------------------------------------------------------------|
|---------------------------------------------------------------------|
|------9"-10"---9"--7"-9"--------9"-------9"-10"---9"-----7"-9"----9"-|gtr 1
|-7"-------------------------7"------7"----------------5"-------7"----|
|---------------------------------------------------------------------|
|
|---------------------------------------------------------------------|
|---------------------------------------------------------------------|
|---------------------------------------------------------------------|
|-9"---------------------------------9"-------------------------------|gtr 2
|-----10"-7"-9"-10"-9"-7"-6"-7"--/7------10"-7"-9"-10"-9"-7"-6"-7"----|
|---------------------------------------------------------------------|

|----------------------------------|
|----------------------------------|
|---------7------------------------|
|-----7--------------------7-------|gtr 1
|-5-----------5~-------7--------9\-|
|-------------3~--5-----------7----|
|
|----------------------------------|
|----------------------------------|
|----------------------------------|
|----------------------------------|gtr 2
|-7-----------------10-9h10p9-7~---|
|---10-8h10p8-7~--5----------------|



Riff 4b
|--------------------------------------------------------------------|
|--------------------------------------------------------------------|
|--------------------------------------------------------------------|
|------9"-10"---9"-----7"-9"-----9"------9"-10"---9"-----7"-9"----9"-|gtr 1
|-7"----------------5"-------7"-----7"----------------5"-------7"----|
|--------------------------------------------------------------------|
|
|--------------------------------------------------------------------|
|--------------------------------------------------------------------|
|--------------------------------------------------------------------|
|-9"--------------------------------9"-------------------------------|gtr 2
|-----10"-7"-9"-10"-9"-7"-6"-7"--/7-----10"-7"-9"-10"-9"-7"-6"-7"----|
|--------------------------------------------------------------------|

|----------------------------------|
|----------------------------------|
|---------7------------------------|
|-----7--------------------7-------|gtr 1
|-5-----------5~-------7--------9\-|
|-------------3~--5-----------7----|
|
|----------------------------------|
|----------------------------------|
|----------------------------------|
|----------------------------------|gtr 2
|-7-----------------10-9h10p9-7~---|
|---10-8h10p8-7~--5----------------|



Riff 5
|------------------------------------------------------------------|
|------------------------------------------------------------------|
|------------------------------------------------------------------|
|-------9-10------9----7-7h9------9-----9-10-9h10p9-----7-7h9----9-|gtr 1
|-7~----------------5---------7~----7~----------------5-------7----|
|------------------------------------------------------------------|
|
|------------------------------------------------------------------|
|------------------------------------------------------------------|
|------------------------------------------------------------------|
|----9~------------------------------9~----------------------------|gtr 2
|-/7----10-7-9-9h10-9-7-6h7p6-7---/7----10-7-9-9h10-9-7-6h7p6-7----|
|------------------------------------------------------------------|

|----------------------------------|
|----------------------------------|
|---------7------------------------|
|-----7--------------------7-------|gtr 1
|-5-----------5~-------7--------9\-|
|-------------3~--5-----------7----|
|
|----------------------------------|
|----------------------------------|
|----------------------------------|
|----------------------------------|gtr 2
|-7-----------------10-9h10p9-7~---|
|---10-8h10p8-7~--5----------------|



Ending riff
|--------------------------------------|
|--------------------------------------|
|--------------------------------------|
|----9-10~--9--------7-7h9-------------|gtr 1
|-/7-------------5----------7~----2~---|
|---------------------------------0~---|
|
|--------------------------------------|
|--------------------------------------|
|--------------------------------------|
|----9~--------------------------------|gtr 2
|-/7----10-7-7h9-10-9-6h7p6-7~----2~---|
|---------------------------------0~---|

  Visit MetalTabs.com for more metal tablature

bottom separator

Contact Us | Privacy Policy | Disclaimer | Legal Notice
Copyright © 2001-2014 MetalTabs.com. All Rights Reserved.