top separator

Home

Forum

What's New

Submit a Tab

FAQ

Links

Contact Us

Link to Us

MetalTabs.com logo

Bands

0-9

A

B

C

D

E

F

G

H

I

J

K

L

M

N

O

P

Q

R

S

T

U

V

W

X

Y

Z

Search

What

Where
 

Mithotyn - "In The forest Of Moonlight" Guitar Tab

Plain Text Version
More Mithotyn Tabs

Hits: 2864
Rated: 5.00 out of 5 (1 vote)
Updated: 2005-09-14 20:03:59

 

By:

Daniil

sendpm.gif

email.gif

Important note
This tab is available online because we obtained explicit permission from Mithotyn or their label.


#----------------------------------PLEASE NOTE---------------------------------#
#This file is the author's own work and represents their interpretation of the #
#song. You may only use this file for private study, scholarship, or research. #
#Unless specified otherwise, this is NOT an official tab from the band members.#
#------------------------------------------------------------------------------#

  Visit MetalTabs.com for more metal tablature
  
MITHOTYN-In The Forest Of Moonlight
In The Sign Of The Ravens-1997
Transcribed by Daniil Laletin
Copyright by Invasion Records
e-mail: dlaletin@mail.ru
version 2.0 June 2005

All corrections are welcome.

 " - tremolo
 / - slide down
 \ - slide up
 . - palm mute
 ~ - long sound
 x - rest
 p - pull off
 h - hammer on
 tr - trill
 () - ghost note, sustained note

Tuning from low to high   D# G# C# F# A# D#
===========================================
This tab is dedicated to my French Bulldog "Sebastian" R.I.P.
=================================================================
Corrected: Riff 1a, Riff 1b, Fill 1,
           Riff 2a, Riff 2b, Riff 4,
           Riff 6
=================

 Riff 1a                 x4
|--------------------------|
|--------------------------|
|--------------------------|
|--------------------------|gtr 1
|-6---------(6)------------|
|-4---------(4)------------|
|
|--------------------------|
|--------------------------|
|--------------4-----------|
|-6-6666-6-4-6---6-4-8-6-4-|gtr 2
|--------------------------|
|--------------------------|
                                                        x1
|---------------------------------------------------------|
|---------------------------------------------------------|
|---------------------------------------------------------|
|---------------------------------------------------------|gtr 1
|-2---------(2)---------------4-------------6------4------|
|-0---------(0)---------------2-------------4------2------|
|
|---------------------------------------------------------|
|---------------------------------------------------------|
|---------------------------------------------------------|
|-9-9999-9-9999-9-9999-9-11-9-8-8888-8-8888-6-6666-4-4444-|gtr 2
|---------------------------------------------------------|
|---------------------------------------------------------|



 Riff 1b                 x4
|--------------------------|
|--------------------------|
|--------------4-----------|
|-6-6666-6-4-6---6-4-8-6-4-|gtr 1
|--------------------------|
|--------------------------|
|
|--------------------------|
|--------------------------|
|--------------------------|
|--------------------------|gtr 2
|-6---------(6)------------|
|-4---------(4)------------|
                                                        x1
|---------------------------------------------------------|
|---------------------------------------------------------|
|---------------------------------------------------------|
|-9-9999-9-9999-9-9999-9-11-9-8-8888-8-8888-6-6666-4-4444-|gtr 1
|---------------------------------------------------------|
|---------------------------------------------------------|
|
|---------------------------------------------------------|
|---------------------------------------------------------|
|---------------------------------------------------------|
|---------------------------------------------------------|gtr 2
|-2---------(2)---------------4-------------6------4------|
|-0---------(0)---------------2-------------4------2------|


 Fill 1
|-------|
|-------|
|-------|
|-6-----|gtr 1
|----6--|
|-------|
|
|-------|
|-------|
|-------|
|-9--5--|gtr 2
|-------|
|-------|


 Riff 2a
|----------------------------------------|
|----------------------------------------|
|-8--6----------------8--6---------------|
|------9-8-6p4-4h6-6-------9-8-6p4-4h6-6-|gtr 1
|----------------------------------------|
|----------------------------------------|
|
|----------------------------------------|
|----------------------------------------|
|----------------------------------------|
|----------------------------------------|gtr 2
|-6-------------------6------------------|
|-4----------------44-4---------------44-|

|----------------------------------------------|
|----------------------------------------------|
|------------------------------------8-6-------|
|-6-8-9--9p8-6-4h6-6-6--6-8-9--9p8-6-----9-8-6-|gtr1
|----------------------------------------------|
|----------------------------------------------|
|
|----------------------------------------------|
|----------------------------------------------|
|----------------------------------------------|
|----------------------------------------------|gtr 2
|-2----4-----6-------------2----4----6\4-4/6-6-|
|-0-00-2-22--4----------44-0-00-2----4\2-2/4-4-|


 Riff 2b
|----------------------------------------|
|----------------------------------------|
|----------------------------------------|
|----------------------------------------|gtr 1
|-6-------------------6------------------|
|-4----------------44-4---------------44-|
|
|----------------------------------------|
|----------------------------------------|
|-8--6----------------8--6---------------|
|------9-8-6p4-4h6-6-------9-8-6p4-4h6-6-|gtr 2
|----------------------------------------|
|----------------------------------------|

|----------------------------------------------|
|----------------------------------------------|
|----------------------------------------------|
|----------------------------------------------|gtr 1
|-2----4-----6-------------2----4----6\4-4/6-6-|
|-0-00-2-22--4----------44-0-00-2----4\2-2/4-4-|
|
|----------------------------------------------|
|----------------------------------------------|
|------------------------------------8-6-------|
|-6-8-9--9p8-6-4h6-6-6--6-8-9--9p8-6-----9-8-6-|gtr 2
|----------------------------------------------|
|----------------------------------------------|


 Riff 3
|---------------------------------------------------------|
|---------------------------------------------------------|
|-------------------------------------/8~-9-11~-9-8-8h9p6-|
|-6~-8-9-6-8-9-8-6h8p6-4-6~-8-9-6-8-9---------------------|gtr1
|---------------------------------------------------------|
|---------------------------------------------------------|
|
|---------------------------------------------------------|
|---------------------------------------------------------|
|-------------------------------------/8~-9-11~-9-8-8h9p6-|
|-6~-8-9-6-8-9-8-6h8p6-4-6~-8-9-6-8-9---------------------|gtr 2
|---------------------------------------------------------|
|---------------------------------------------------------|

|---------------------------------------------------------|
|---------------------------------------------------------|
|-4~-6-8-4-6-8-6-4h6p4-6-8-6-4-3~-3h4p1~--3-4-6-4-1-3-4---|
|---------------------------------------------------------|gtr1
|---------------------------------------------------------|
|---------------------------------------------------------|
|
|---------------------------------------------------------|
|---------------------------------------------------------|
|-------------------------------------/8~-9-11~-9-8-8h9p6-|
|-6~-8-9-6-8-9-8-6h8p6-4-6~-8-9-6-8-9---------------------|gtr 2
|---------------------------------------------------------|
|---------------------------------------------------------|



 Riff 4
|----------------------------------------------------------|
|----------------------------------------------------------|
|----------------------------------------------------------|
|-4------4----4--------------------------------------------|gtr1
|-2-2222-2-22-2--4------4----4--6------6----6-6------4-6-4-|
|---....---..----2-2222-2-22-2--4-4444-7-77-7-2-2222-------|
|                  ....   ..      ....   ..     ....
|----------------------------------------------------------|
|----------------------------------------------------------|
|-----11-9-8h9p8----/8-6-4h6p4-----8-6-4h6p4---------------|
|-/9~---------------------------6~-------------------------|gtr 2
|----------------9~---------------------------6-6666-4-----|
|------------------------------------------------------7-6-|


 Riff 5a
|-----------------------------------------------------|
|-----------------------------------------------------|
|-----------------------------------------------------|
|-----------------------------------------------------|gtr1
|-4-44-4h6-2-2222-4-44-4h6-2-2222-1-1111-4-4444-6-4-4-|
|-4-44-4h6-4-4444-4-44-4h6-4-4444-2-2222-6-6666-7-6-2-|
|
|-----------------------------------------------------|
|-----------------------------------------------------|
|-----------------------------------------------------|
|-----------------------------------------------------|gtr 2
|------------2222------------2222----------4444-6-4-4-|
|------------4444------------4444----------6666-7-6-2-|



 Riff 5b
|-----------------------------------------------------|
|-----------------------------------------------------|
|-----------------------------------------------------|
|-----------------------------------------------------|gtr1
|-4-44-4h6-2-2222-4-44-4h6-2-2222-1-1111-4-4444-6-4-4-|
|-4-44-4h6-4-4444-4-44-4h6-4-4444-2-2222-6-6666-7-6-2-|
|
|-----------------------------------------------------|
|-----------------------------------------------------|
|-----------------------------------------------------|
|-----------------------------------------------------|gtr 2
|-4-44-4h6-2-2222-4-44-4h6-2-2222-1-1111-4-4444-6-4-4-|
|-4-44-4h6-4-4444-4-44-4h6-4-4444-2-2222-6-6666-7-6-2-|


 Riff 6
|---------------------------------------------------------|
|---------------------------------------------------------|
|---------------------------------------------------------|
|-9"---------------------------6"-------------------------|gtr1
|----------------9"--------------------------6------4-6-4-|
|--------------------------------------------2-2222-------|
|                                              ....
|---------------------------------------------------------|
|---------------------------------------------------------|
|------11"-9"-8"------8"-6"-4"------8"-6"-4"--------------|
|-9"---------------------------6"-------------------------|gtr 2
|----------------9"--------------------------6-6666-4-----|
|-----------------------------------------------------7-6-|

|---------------------------------------------------------|
|---------------------------------------------------------|
|---------------------------------------------------------|
|---------------------------------------------------------|gtr1
|-2"-----------------------------------------6------4-6-4-|
|----------------2"------------4"------------2-2222-------|
|                                              ....
|---------------------------------------------------------|
|---------------------------------------------------------|
|---------------------------------------------------------|
|------4"-2"-1"-------------------------------------------|gtr 2
|-2"------------------6"-4"-2"------6"-4"-2"-6-6666-4-----|
|----------------2"------------4"---------------------7-6-|

 The End ))

  Visit MetalTabs.com for more metal tablature

bottom separator

Contact Us | Privacy Policy | Disclaimer | Legal Notice
Copyright © 2001-2014 MetalTabs.com. All Rights Reserved.