top separator

Home

Forum

What's New

Submit a Tab

FAQ

Links

Contact Us

Link to Us

MetalTabs.com logo

Bands

0-9

A

B

C

D

E

F

G

H

I

J

K

L

M

N

O

P

Q

R

S

T

U

V

W

X

Y

Z

Search

What

Where
 

Mithotyn - "Stories carved in stone" Guitar Tab

Plain Text Version
More Mithotyn Tabs

Hits: 2769
Rated: 5.00 out of 5 (1 vote)
Updated: 2004-05-24 05:32:59

 

By:

Daniil

sendpm.gif

email.gif

Important note
This tab is available online because we obtained explicit permission from Mithotyn or their label.


#----------------------------------PLEASE NOTE---------------------------------#
#This file is the author's own work and represents their interpretation of the #
#song. You may only use this file for private study, scholarship, or research. #
#Unless specified otherwise, this is NOT an official tab from the band members.#
#------------------------------------------------------------------------------#

  Visit MetalTabs.com for more metal tablature
  
MITHOTYN-Stories Carved In Stone
In The Sign Of The Ravens-1997
Transcribed by Daniil Laletin
"INVASION RECORDS"
e-mail: dlaletin@mail.ru
version 1.0 December 2003

All corrections are welcome.

 " - tremolo
 / - slide down
 \ - slide up
 . - palm mute
 ~ - long sound
 x - rest
 p - pull off
 h - hammer on
 tr - trill
 () - ghost note, sustained note



Riff 1a
|-----------------------------------------------------|
|-----------------------------------------------------|
|-----------------------------------------------------|
|-6-6-6-6-6-6-6-6-6-6-6-6-6-6-6-6-6"------------------|gtr 1
|-4-4-4-4-4-4-4-4-4-4-4-4-4-4-4-4-4"------------------|
|-----------------------------------------------------|
|
|-----------------------------------------------------|
|-----------------------------------------------------|
|------9--11---13---11---9h11p9-------9-11-/14~-13-11-|
|-/11-----------------------------/11-----------------|gtr 2
|-----------------------------------------------------|
|-----------------------------------------------------|


Riff 1b
|---------------------------------------------------|
|---------------------------------------------------|
|---------------------------------------------------|
|---------------------------------------------------|gtr 1
|-6-6-6-6-6-6-6-6-6-6-6-6-6-6-6-6-9"----------------|
|-4-4-4-4-4-4-4-4-4-4-4-4-4-4-4-4-7"----------------|
|
|---------------------------------------------------|
|---------------------------------------------------|
|------6-----8-----9----8----6--------8--6--9--8----|
|-/9------------------------------/9--------------9-|gtr 2
|---------------------------------------------------|
|---------------------------------------------------|


Riff 1c
|---------------------------------------------------|
|---------------------------------------------------|
|---------------------------------------------------|
|---------------------------------------------------|gtr 1
|-6-6-6-6-6-6-6-6-6-6-6-6-6-6-6-6-9"----------------|
|-4-4-4-4-4-4-4-4-4-4-4-4-4-4-4-4-7"----------------|
|
|---------------------------------------------------|
|---------------------------------------------------|
|------6-----8-----9----8----6--------8--6--9----8--|
|-/9------------------------------/9--------------9-|gtr 2
|---------------------------------------------------|
|---------------------------------------------------|



Riff 1d
|----------------------------------------------------------|
|----------------------------------------------------------|
|----------------------------------------------------------|
|----------------------------------------------------------|gtr 1
|-6-6-6-6-6-6-6-6-6-6-6-6-6-6-6-6-9"-----------------------|
|-4-4-4-4-4-4-4-4-4-4-4-4-4-4-4-4-7"-----------------------|
|
|----------------------------------------------------------|
|-------------------------------------------10-9-7---------|
|------6-----8-----9----8----6--------8--6---------9-8-6-5-|
|-/9------------------------------/9-----------------------|gtr 2
|----------------------------------------------------------|
|----------------------------------------------------------|



Riff 2a
|----------------------------------------------------------------------|
|----------------------------------------------------------------------|
|----------------------------------------------------------------------|
|----------------------------------------------------------------------|gtr 1
|----------------------------------------------------------------------|
|----------------------------------------------------------------------|
|
|----------------------------------------------------------------------|
|----------------------------------------------------------------------|
|-------9-11-13-11-9-8-9-11------8-9-11-9-8-6-8-9------6-8-9-8-6-4-6-8-|
|-11"-----------------------9"--------------------7"-------------------|gtr 2
|----------------------------------------------------------------------|
|----------------------------------------------------------------------|

|------------------|
|------------------|
|------------------|
|------------------|gtr 1
|------------------|
|------------------|
|
|------------------|
|------------------|
|------------------|
|-6"-----------5-6-|gtr 2
|------9-7-6-7-----|
|------------------|



Riff 2b
|----------------------------------------------------------------------|
|----------------------------------------------------------------------|
|----------------------------------------------------------------------|
|----------------------------------------------------------------------|gtr 1
|----------------------------------------------------------------------|
|----------------------------------------------------------------------|
|
|----------------------------------------------------------------------|
|----------------------------------------------------------------------|
|-------9-11-13-11-9-8-9-11------8-9-11-9-8-6-8-9------6-8-9-8-6-4-6-8-|
|-11"-----------------------9"--------------------7"-------------------|gtr 2
|----------------------------------------------------------------------|
|----------------------------------------------------------------------|

|------------------|
|------------------|
|------------------|
|------------------|gtr 1
|------------------|
|------------------|
|
|------------------|
|------------------|
|------------------|
|-6"---------------|gtr 2
|------9-7-6-7-6-4-|
|------------------|



Riff 2c
|----------------------------------------------------------------------|
|----------------------------------------------------------------------|
|----------------------------------------------------------------------|
|-11"-11~-------------------9999-9~---------------7777-7~--------------|gtr 1
|-----11~------------------------9~--------------------7~--------------|
|----------------------------------------------------------------------|
|
|----------------------------------------------------------------------|
|----------------------------------------------------------------------|
|-------9-11-13-11-9-8-9-11------8-9-11-9-8-6-8-9------6-8-9-8-6-4-6-8-|
|-11"-----------------------9"--------------------7"-------------------|gtr 2
|----------------------------------------------------------------------|
|----------------------------------------------------------------------|

|------------------|
|------------------|
|------------------|
|-7777-7\--9999-9\-|gtr 1
|------7\-------9\-|
|------------------|
|
|------------------|
|------------------|
|------------------|
|-6"---------------|gtr 2
|------9-7-6-7-6-4-|
|------------------|



Riff 3
|----------------------------------------------------------------------------|
|----------------------------------------------------------------------------|
|----------------------------------------------------------------------------|
|----/11~--------------/11~----------------/11~------------------------------|1
|----------------11----------------11-----------11"---11------9"------9------|
|-9"-------9"-11----9"-------9"-11----9"---------9"----9------7"------7------|
|
|----------------------------------------------------------------------------|
|---------------------------------------------------------------9-10-12-10-9-|
|--------------------------------------------------------8-9-11--------------|
|-----------------------------------------------11"---11---------------------|2
|-----11----------------11------9--10-//--\\11-------------------------------|
|------9-----------------9------7---8-//--\\-9-------------------------------|




Riff 4a
|---------------------------------------------------------------------------|
|---------------------------------------------------------------------------|
|-----------------------------------------------------9-8-6------11-9-8-----|
|-----/11~---------------/11~---------------/11~-7"---------9"--------------|
|------------------11-----------------11------------------------------------|
|-9"-------9"-11------9"------9"-11------9"---------------------------------|
|
|---------------------------------------------------------------------------|
|--------------------------------------------------------------9-10-12-10-9-|
|----------------8-11---------------8-11----------------8-9-11--------------|
|------7~------9----------7~------9----------7~-11"--11---------------------|
|---------------------------------------------------------------------------|
|----------9"-----------------9"--------------------------------------------|



Riff 4b
|---------------------------------------------------------------------------|
|---------------------------------------------------------------------------|
|-----------------------------------------------------9-8-6------11-9-8-----|
|-----/11~---------------/11~---------------/11~-7"---------9"--------------|
|------------------11-----------------11------------------------------------|
|-9"-------9"-11------9"------9"-11------9"---------------------------------|
|
|---------------------------------------------------------------------------|
|--------------------------------------------------------------9-10-12-10-9-|
|----------------8-11---------------8-11----------------8-9-11--------------|
|------7~------9----------7~------9----------7~-11"--11---------------------|
|---------------------------------------------------------------------------|
|----------9"-----------------9"--------------------------------------------|

|-----------------|
|-----------------|
|---------11--9-8-|
|-11"-------------|
|-----------------|
|-----------------|
|
|-----------------|
|----9-10-12-10-9-|
|-11--------------|
|-----------------|
|-----------------|
|-----------------|



Riff 5a

|---------------------------------------------------|
|---------------------------------------------------|
|-13-11-13-11-\9-11~-13~-13-11-13-11-9h11p9p8h9p8p6-|
|---------------------------------------------------|
|---------------------------------------------------|
|---------------------------------------------------|
|
|---------------------------------------------------|
|---------------------------------------------------|
|---------------------------------------------------|
|---------------------------------------------------|
|-11---------------------11-------------------------|
|--9------------------99--9----------------------99-|

|----------------------------------------|
|----------------------------------------|
|-11-9-11-9-\8-9~-11~-9-8-9-8~-\6~-4~-6~-|
|----------------------------------------|
|----------------------------------------|
|----------------------------------------|
|
|----------------------------------------|
|----------------------------------------|
|----------------------------------------|
|----------------------------------------|
|-9-------------------7---------9--7--9--|
|-7----------------77-5------55-7--5--7--|



Riff 5b
|---------------------------------------------------|
|---------------------------------------------------|
|---------------------------------------------------|
|-13-11-13-11-\9-11~-13~-13-11-13-11-9h11p9p8h9p8p6-|
|---------------------------------------------------|
|---------------------------------------------------|
|
|---------------------------------------------------|
|---------------------------------------------------|
|---------------------------------------------------|
|---------------------------------------------------|
|--6---------------------6--------------------------|
|--4------------------44-4-----------------------44-|

|----------------------------------------|
|----------------------------------------|
|----------------------------------------|
|-11-9-11-9-\8-9~-11~-9-8-9-8~-\6~-4~-6~-|
|----------------------------------------|
|----------------------------------------|
|
|----------------------------------------|
|----------------------------------------|
|----------------------------------------|
|----------------------------------------|
|-4-------------------2---------4--2--4--|
|-2----------------22-0------00-2--0--2--|



Fill 1
|-----------------------------------------------------|
|-----------------------------------------------------|
|--9------9----9--9----9--9--9-9------9------9----9-9-|
|-11-111111-1111-11-1111-11-11-9999999999999999999999-|
|-----------------------------------------------------|
|-----------------------------------------------------|
|
|-----------------------------------------------------|
|-----------------------------------------------------|
|--9------9----9--9----9--9--9-9------9------9----9-9-|
|-11-111111-1111-11-1111-11-11-9999999999999999999999-|
|-----------------------------------------------------|
|-----------------------------------------------------|

|-----------------------------------------------|
|-----------------------------------------------|
|-9------9------9----9-9-9------9------8----8-8-|
|-7777777777777777777777-6666666666666666666666-|
|-----------------------------------------------|
|-----------------------------------------------|
|
|-----------------------------------------------|
|-----------------------------------------------|
|-9------9------9----9-9-9------9------8----8-8-|
|-7777777777777777777777-6666666666666666666666-|
|-----------------------------------------------|
|-----------------------------------------------|



Riff 6


|-------------------------------------|
|-------------------------------------|
|-------------------------------------|
|-11"---------7"-----6"---7"----9"-6"-|
|-------------------------------------|
|-------------------------------------|
|
|-------------------------------------|
|------9"-----------------------------|
|-9"------9"-11"--9"-8"---9"-6"-8"-4"-|
|-------------------------------------|
|-------------------------------------|
|-------------------------------------|

Riff 7
|--------------------------------------------------|
|--------------------------------------------------|
|--9"--------9"--------9"---------------9--------8-|
|-11"--------9"--------7"--------666666-6-666666-6-|
|--------------------------------......---......---|
|--------------------------------------------------|
|
|--------------------------------------------------|
|--------------------------------------------------|
|--9"--------9"--------9"---------------9--------8-|
|-11"--------9"--------7"--------666666-6-666666-6-|
|--------------------------------......---......---|
|--------------------------------------------------|



Riff 8
|------------------------------------------------------------------|
|------------5-7-10-9-7--------------7-9-7--------------5-7-10-9-7-|
|----------6---------------------6-9-------9----------6------------|
|-------6---------------------9--------------------6---------------|
|-4-4-4-4---------------7-7-7-7--------------4-4-4-4---------------|
|-4-4-4-4---------------7-7-7-7--------------4-4-4-4---------------|
|
|------------------------------------------------------------------|
|------------------------------------------------------------------|
|------------------------------------------------------------------|
|-------6---------------------9--------------------6---------------|
|-4-4-4-4---------------7-7-7-7--------------4-4-4-4---------------|
|-4-4-4-4---------------7-7-7-7--------------4-4-4-4---------------|

|--------------------------|
|--------------------------|
|--------------------------|
|-4"----------6"-----------|
|--------------------------|
|--------------------------|
|
|---------------------------|
|------9-10-9---------------|
|-9-11--------11-9-8-5-6~~~-|
|---------------------------|
|---------------------------|
|---------------------------|

|-------------------------------------------------------------------|
|------------5-7-10-9-7--------------7-9-7---------------5-7-10-9-7-|
|----------6---------------------6-9--------9----------6------------|
|-------6---------------------9---------------------6---------------|
|-4-4-4-4---------------7-7-7-7---------------4-4-4-4---------------|
|-4-4-4-4---------------7-7-7-7---------------4-4-4-4---------------|
|
|--------------7-9--7------------------7-------------------7-9--7---|
|----------5-7--------9----------5-7-9---10-9----------5-7--------9-|
|-------------------------------------------------------------------|
|-------6---------------------9---------------------6---------------|
|-4-4-4-4---------------7-7-7-7---------------4-4-4-4---------------|
|-4-4-4-4---------------7-7-7-7---------------4-4-4-4---------------|

|----------------|
|----------------|
|---------8"---8-|
|-6"---6--6"---6-|
|-4"---4---------|
|----------------|
|
|----------------|
|----------------|
|---------8"---8-|
|-6"---6--6"---6-|
|-4"---4---------|
|----------------|

  Visit MetalTabs.com for more metal tablature

bottom separator

Contact Us | Privacy Policy | Disclaimer | Legal Notice
Copyright © 2001-2014 MetalTabs.com. All Rights Reserved.