top separator

Home

Forum

What's New

Submit a Tab

FAQ

Links

Contact Us

Link to Us

MetalTabs.com logo

Bands

0-9

A

B

C

D

E

F

G

H

I

J

K

L

M

N

O

P

Q

R

S

T

U

V

W

X

Y

Z

Search

What

Where
 

Lividity - "Coated With My Semen" Guitar Tab

Plain Text Version
More Lividity Tabs

Hits: 5114
Rated: 2.20 out of 5 (5 votes)
Updated: 2004-05-24 05:32:46

 

By:

Yura

sendpm.gif

email.gif

Important note
This tab is available online because we obtained explicit permission from Lividity or their label.


#----------------------------------PLEASE NOTE---------------------------------#
#This file is the author's own work and represents their interpretation of the #
#song. You may only use this file for private study, scholarship, or research. #
#Unless specified otherwise, this is NOT an official tab from the band members.#
#------------------------------------------------------------------------------#

  Visit MetalTabs.com for more metal tablature
  
CHECK HTTP://www.BLOOD-SCRAPES.NM.RU FOR MORE DEATH METAL TABS

                                --- LIVIDITY ---
                              "Coated With My Semen"
                     From album: ""...Til Only The Sick Remains" (2002)
                     Transcribed by: Yura Kowalchuk
                     Contact: [yura_kowalchuk@mail.ru]
                              [blood-scrapes@nm.ru]

NOTES:
 " - tremolo
() - tremolo picking note
*  - tremolo picking notes
 x - hard palm muting
 = - sustained note

h - hammer on              ~ - vibrato
p - pull off               b - bend string
^ - pinch harmonics        p.m. - palm mute
x - muted note             t - right hand tap
/ - slide up               \ - slide down

Tune to D

Riff 1 (x2)
-|-----------------------|------------------------|
-|-----------------------|------------------------|
-|-----------------------|------------------------|
-|-----------------------|------------------------|
-|-5"--6"--5"--6"--------|-4"--5"..------4"--5"---|
-|---4"--4"--4"--4"-[x2]-|---3"-----[x3]---3"--3"-|

Riff 2 (x2)
-|----------------|-[ending 1]----|-[ending 2]-------|
-|----------------|---------------|------------------|
-|----------------|---------------|------------------|
-|-----------2"1"-|---------------|-4"3"----3"2"-----|
-|---------1"-----|----------4-5--|-----2"3"----1"..-|
-|-1"-3"-2"-------|-1"-3"-2"-2-3--|------------------|

Riff 3 (x2)
-|--------------|---------------|
-|--------------|---------------|
-|--------------|---------------|
-|--------------|---------------|
-|-3--5--4------|-3--5--4--4--5-|
-|-1--3--2------|-1--3--2--2--3-|
   .  .  .        .  .  .  .  .

RIFF 3 /without muting/ (x2)

Riff 4 (x4)
-|--------------------------------------------|
-|--------------------------------------------|
-|--------------------------------------------|
-|-------------------------------------4"--3"-|
-|-3-5-4-3-5-4-4-5------3-5-4-3-5-4-5----3"---|
-|-1-3-2-1-3-2-2-3-[x2]-1-3-2-1-3-2-3---------|
   . . . . . . .        . . . . . .

RIFF 4 /tremolo/ (x4)

Riff 5 (x8)
-|---------------------------|
-|---------------------------|
-|---------------------------|
-|---------------------------|
-|-2--6-4-6-2-5-4-3--6--6--3-|
-|-2--4-2-4-2-3-2-3--4--6--3-|
      . . . . . .

END OF SONG

  Visit MetalTabs.com for more metal tablature

bottom separator

Contact Us | Privacy Policy | Disclaimer | Legal Notice
Copyright © 2001-2014 MetalTabs.com. All Rights Reserved.