top separator

Home

Forum

What's New

Submit a Tab

FAQ

Links

Contact Us

Link to Us

MuSpy.com

MetalTabs.com logo

Bands

0-9

A

B

C

D

E

F

G

H

I

J

K

L

M

N

O

P

Q

R

S

T

U

V

W

X

Y

Z

Search

What

Where
 

Lividity - "T.L.C. (Tight 'Lil Cunt)" Guitar Tab

Plain Text Version
More Lividity Tabs

Hits: 5622
Rated: 3.00 out of 5 (3 votes)
Updated: 2004-05-24 05:32:39

 

By:

Yura

sendpm.gif

email.gif

Important note
This tab is available online because we obtained explicit permission from Lividity or their label.


#----------------------------------PLEASE NOTE---------------------------------#
#This file is the author's own work and represents their interpretation of the #
#song. You may only use this file for private study, scholarship, or research. #
#Unless specified otherwise, this is NOT an official tab from the band members.#
#------------------------------------------------------------------------------#

  Visit MetalTabs.com for more metal tablature
  
CHECK HTTP://www.BLOOD-SCRAPES.NM.RU FOR MORE DEATH METAL TABS

                                --- LIVIDITY ---
                                    "T.L.C."
                     From album: ""...Til Only The Sick Remains" (2002)
                     Transcribed by: Yura Kowalchuk
                     Contact: [yura_kowalchuk@mail.ru]
                              [blood-scrapes@nm.ru]

NOTES:
 " - tremolo
() - tremolo picking note
*  - tremolo picking notes
 x - hard palm muting
 = - sustained note

h - hammer on              ~ - vibrato
p - pull off               b - bend string
^ - pinch harmonics        p.m. - palm mute
x - muted note             t - right hand tap
/ - slide up               \ - slide down

Tune to D

Riff 1 (x8)
-|----------------------------|
-|----------------------------|
-|----------------------------|
-|----------------------------|
-|----5"-8"-7"-5"-7"----------|
-|-0"----------------4"-1"-3"-|

Riff 2 (x4)
-|--------------------------------|
-|--------------------------------|
-|--------------------------------|
-|--------------------------------|
-|-4--5-4-4-4--5-4-4--5-4-4-5--3--|
-|-2--3-2-2-2--3-2-2--3-2-2-3--1--|

RIFF 1 (x4)

Riff 3 (x8)
-|---------------------|
-|---------------------|
-|---------------------|
-|-4---3-2---1---------|
-|-4-5-3-2-3-1---------|
-|---5-----3---3-1-1-1-|
               . . . .

Riff 4 (x4)
-|-----------------------------|
-|-----------------------------|
-|-----------------------------|
-|-----------------------------|
-|-3"6"3"-2"5"2"---------------|
-|---------------4"7"4"-3"1"0"-|

Outro
-|-------------------|-------|
-|-------------------|-------|
-|-------------------|-------|
-|-------------------|-------|
-|-7-----------------|-7-5-4-|
-|-5-----------------|-5-3-2-|

Riff 5 (x7)
-|----------------------------------|
-|----------------------------------|
-|----------------------------------|
-|------------------4---------------|
-|-2-2-6\4-5\3--------5---3-1---2---|
-|-0-0-4\2-3\1-[x3]-----4-----4---1-|
   . .              . . . . . . . .

Riff 6 (x4)
-|-------------------------------------|
-|-------------------------------------|
-|-------------------------------------|
-|-------------------------------------|
-|--------3"--2"-----------------------|
-|-1"..-4"--3"---[x3]-4"1"3"5"6"1"4"3"-|

Riff 7 (x4)
-|-----------------------------------------------------|-------|
-|-----------------------------------------------------|-------|
-|-----------------------------------------------------|-------|
-|-----4-----------------------------------------------|-----4-|
-|-3-6-------3-----2-----3-----1-----3-----2-----3-----|-3-6---|
-|-------3-3---3-3---3-3---3-3---3-3---3-3---3-3---3-3-|-------|
   . .   . . . . . . . . . . . . . . . . . . . . . . .   . .

Riff 8 (x2)
-|---------------------------|
-|---------------------------|
-|---------------------------|
-|------4"-----------7"------|
-|-3366---------6699---------|
-|---------[x4]---------[x4]-|
   ....         ....

RIFF 7 (x4)
RIFF 8 (x4)

END OF SONG

  Visit MetalTabs.com for more metal tablature

bottom separator

Contact Us | Privacy Policy | Disclaimer | Legal Notice
Copyright © 2001-2014 MetalTabs.com. All Rights Reserved.