top separator

Home

Forum

What's New

Submit a Tab

FAQ

Links

Contact Us

Link to Us

MuSpy.com

MetalTabs.com logo

Bands

0-9

A

B

C

D

E

F

G

H

I

J

K

L

M

N

O

P

Q

R

S

T

U

V

W

X

Y

Z

Search

What

Where
 

Burzum - "The Crying Orc" Guitar Tab

Plain Text Version
More Burzum Tabs

Hits: 6585
Rated: 2.75 out of 5 (4 votes)
Updated: 2004-05-24 05:32:03

 

By:

sendpm.gif

email.gif

Important note
This tab is available online because we obtained explicit permission from Burzum or their label.


#----------------------------------PLEASE NOTE---------------------------------#
#This file is the author's own work and represents their interpretation of the #
#song. You may only use this file for private study, scholarship, or research. #
#Unless specified otherwise, this is NOT an official tab from the band members.#
#------------------------------------------------------------------------------#

  Visit MetalTabs.com for more metal tablature
  
Band  :Burzum
Album :ASKE EP
Song  :The Crying Orc

Transcribed by Patrick Elsner              MIDGARD

h - hammer on

Riff 1
e--------------------------------------------------------
B--------------------------------------------------------
G-----54-------------------------------------------------
D--2-----0--2--------5-----------------------------------
A--------------3-------2h3-5-----------------------------
E-----------------3--------------------------------------

Riff 2 Guitar 2 (starts after playing riff 1 twice)
e--------------------------------------------------------
B-----65-------------------------------------------------
G--2-----0--2--------5-----------------------------------
D--------------3--------2h3-5----------------------------
A-----------------3--------------------------------------
E--------------------------------------------------------

  Visit MetalTabs.com for more metal tablature

bottom separator

Contact Us | Privacy Policy | Disclaimer | Legal Notice
Copyright © 2001-2014 MetalTabs.com. All Rights Reserved.