top separator

Home

Forum

What's New

Submit a Tab

FAQ

Links

Contact Us

Link to Us

MetalTabs.com logo

Bands

0-9

A

B

C

D

E

F

G

H

I

J

K

L

M

N

O

P

Q

R

S

T

U

V

W

X

Y

Z

Search

What

Where
 

Falkenbach - "Ultima Thule" Guitar Tab

Plain Text Version
More Falkenbach Tabs

Hits: 5475
Rated: 1.80 out of 5 (10 votes)
Updated: 2004-05-18 18:24:03

 

By:

Darkenelf

sendpm.gif

email.gif

Important note
We did our best to reach Falkenbach and ask for their permission to publish this tab. Unfortunately they did not respond to our requests or we could not find a way to contact them. This tab is available online until Falkenbach tells us to take it down.


#----------------------------------PLEASE NOTE---------------------------------#
#This file is the author's own work and represents their interpretation of the #
#song. You may only use this file for private study, scholarship, or research. #
#Unless specified otherwise, this is NOT an official tab from the band members.#
#------------------------------------------------------------------------------#

  Visit MetalTabs.com for more metal tablature
  
Band: Falkenbach
Album: En Their Medh Riki Fara...
Song: Ultima Thule
Tabbed by: Martijn Wietsma
Tab Date: 18-05-2004
Email: northerland@yahoo.co.uk

Standard E Tuning

riff A
|--------------------------------------------------------|
|--------------------------------------------------------|
|--------------------------------------------------------|
|-2------------2-----------2-----------2-----------------|
|-2--5--3------2--5--3---3^2--5--3---3^2--5--3-----------|
|-0--5--1------0--5--1---1-0--5--1---1-0--5--1-----------|

riff B (lead) (0:28)
|--------------------------------------------------------|
|--------------------------------------------------------|
|--------------------------------------------------------|
|-2-222-222-222-2h3h6---2-222-222-222-2h3h6--------------|
|--------------------------------------------------------|
|--------------------------------------------------------|
                                                (2x)
riff C (chords) (0:28)

|--------------------------------------------------------|
|--------------------------------------------------------|
|--------------------------------------------------------|
|-2---------------------2--------------------------------|
|-2---------------------2--------------------------------|
|-0---------------------0--------------------------------|
                                                (2x)
riff D (0:42)
|--------------------------------------------------------|
|--------------------------------------------------------|
|--------------------------------------------------------|
|-9-999--9-999--9-999--9/10/13---------------------------|
|-7-777--7-777--7-777--7/-8/11---------------------------|
|--------------------------------------------------------|
                                                (4x)
riff E (0:56)
|--------------------------------------------------------|
|--------------------------------------------------------|
|--------------------------------------------------------|
|----5-55---5-55---555-----------------------------------|
|-3--3-33---3-33---333-3---------------------------------|
|-1--------------------1---------------------------------|
                   . .                                (1x)
repeat riff D 4x

riff F (1:12)
|--------------------------------------------------------|
|--------------------------------------------------------|
|--------------------------------------------------------|
|----5-55---5-55---55------------------------------------|
|-3--3-33---3-33---33-3~---------------------------------|
|-1-------------------1----------------------------------|

repeat riff D 4x (1:15)

riff G (solo) (1:23)

|--------------------------------------------------------|
|--------------------------------------------------------|
|-4--4-4--4-2--------------------------------------------|
|-------------3-2--2-2--2-2------------------------------|
|--------------------------------------------------------|
|--------------------------------------------------------|

riff H (acoustic) (1:33) (this part sounds awful)
|--------------------------------------------------------|
|--------------------------------------------------------|
|-------------5~----------------5------------------------|
|---------7-8---------------7-8--------------------------|
|-7-8-7-8-----------7-8-7-8------------------------------|
|--------------------------------------------------------|
                                                (2x)
riff I (1:54)
|--------------------------------------------------------|
|--------------------------------------------------------|
|--------------------------------------------------------|
|-9-----------9------------9------------9----------------|
|-7-----------7------------7------------7----------------|
|--------------------------------------------------------|

riff J (2:01)
|--------------------------------------------------------|
|--------------------------------------------------------|
|--------------------------------------------------------|
|-9-99-9--99-9--99-9--99-9---555-7-5---------------------|
|-7-77-7--77-7--77-7--77-7---333-5-5---------------------|
|--------------------------------------------------------|
                                                (4x)
riff K (2:28)
|--------------------------------------------------------|
|--------------------------------------------------------|
|--------------------------------------------------------|
|-9-99-999--9-99-999--9-99-999--9-99-999-----------------|
|-7-77-777--7-77-777--7-77-777--7-77-777-----------------|
|--------------------------------------------------------|
                                                (2x)
riff L (2:41)
|--------------------------------------------------------|
|--------------------------------------------------------|
|--------------------------------------------------------|
|----5-55--5-55--7-5-------------------------------------|
|-3--3-33--3-33--5-5-------------------------------------|
|-1------------------------------------------------------|
                                                (1x)
repeat riff K 4x
repeat riff L 1x
repeat riff K 4x

(end of song)

  Visit MetalTabs.com for more metal tablature

bottom separator

Contact Us | Privacy Policy | Disclaimer | Legal Notice
Copyright © 2001-2014 MetalTabs.com. All Rights Reserved.