top separator

Home

Forum

What's New

Submit a Tab

FAQ

Links

Contact Us

Link to Us

MuSpy.com

MetalTabs.com logo

Bands

0-9

A

B

C

D

E

F

G

H

I

J

K

L

M

N

O

P

Q

R

S

T

U

V

W

X

Y

Z

Search

What

Where
 

Korpiklaani - "Wooden pints" Guitar Tab

Plain Text Version
More Korpiklaani Tabs

Hits: 12194
Rated: 4.80 out of 5 (5 votes)
Updated: 2004-05-18 18:15:43

 

By:

Darkenelf

sendpm.gif

email.gif

Important note
This tab is available online because we obtained explicit permission from Korpiklaani or their label.


#----------------------------------PLEASE NOTE---------------------------------#
#This file is the author's own work and represents their interpretation of the #
#song. You may only use this file for private study, scholarship, or research. #
#Unless specified otherwise, this is NOT an official tab from the band members.#
#------------------------------------------------------------------------------#

  Visit MetalTabs.com for more metal tablature
  
Band: Korpiklaani
Album: Spirit of the Forest
Song: Wooden Pints
Tabbed by: Martijn  Wietsma
Tab Date: 18-05-2004
Email: northerland@yahoo.co.uk

Standard E Tuning

Riff A (I guess it almost sounds like this on guitar :) )
|--------------------------------6-10-5~---------------|
|-6-6p5h----5-5h6p5h----5-5-6p5------------------------|
|--------7-----------7---------------------------------|
|------------------------------------------------------|
|------------------------------------------------------|
|------------------------------------------------------|
                                                (2x)
Riff B (0:13)
note: ( ) = probably played like that!
|------------------------------------------------------|
|------------------------------------------------------|
|---------5-7--(7)/9----------------5------------------|
|-5-7--5--3-5--(5)/7--(7\5\)-3---5--3--7---------------|
|-3-5--3--------------(5\3\)-1---3-----5---------------|
|------------------------------------------------------|
                                                (4x)
riff C (0:34)
|------------------------------------------------------|
|------------------------------------------------------|
|------------------------5-----------------------------|
|-777-777-7777777-777777-3-5-7-------------------------|
|-555-555-5555555-555555---3-5-------------------------|
|------------------------------------------------------|
 p.m....................                        (2x)

repeat riff B 4x (0:43)
repeat riff C 2x (1:06)
repeat riff B 4x (1:18)
repeat riff C 2x (1:40)
repeat riff B 4x (1:52)
repeat riff C 2x (2:12)

riff D (solo-1) (2:12)
|------------------8-7---5~--5--------------------------------|
|----5h6-8-6-5-6-8-----8-------8-6-5---5h6-6p5-5---56865------|
|-7~---------------------------------7-----------7-------5-7~-|
|-------------------------------------------------------------|
|-------------------------------------------------------------|
|-------------------------------------------------------------|

(2nd solo is missing)

repeat riff B 4x (2:22)

(bass or keyboard riff at 2:45 on CD)

repeat riff A 4x (2:56)
repeat riff B 4x (3:20)

riff F
|------------------------------------------------------|
|------------------------------------------------------|
|------------------------------------------------------|
|-77-77-7----------------------------------------------|
|-55-55-5----------------------------------------------|
|------------------------------------------------------|
  .. ..

(end of song)

  Visit MetalTabs.com for more metal tablature

bottom separator

Contact Us | Privacy Policy | Disclaimer | Legal Notice
Copyright © 2001-2014 MetalTabs.com. All Rights Reserved.