top separator

Home

Forum

What's New

Submit a Tab

FAQ

Links

Contact Us

Link to Us

MuSpy.com

MetalTabs.com logo

Bands

0-9

A

B

C

D

E

F

G

H

I

J

K

L

M

N

O

P

Q

R

S

T

U

V

W

X

Y

Z

Search

What

Where
 

Unleashed - "Where No Life Dwells" Guitar Tab

Plain Text Version
More Unleashed Tabs

Hits: 3953
Rated: 3.33 out of 5 (3 votes)
Updated: 2004-05-18 18:14:44

 

By:

sendpm.gif

email.gif

Important note
This tab is available online because we obtained explicit permission from Unleashed or their label.


#----------------------------------PLEASE NOTE---------------------------------#
#This file is the author's own work and represents their interpretation of the #
#song. You may only use this file for private study, scholarship, or research. #
#Unless specified otherwise, this is NOT an official tab from the band members.#
#------------------------------------------------------------------------------#

  Visit MetalTabs.com for more metal tablature
  
Unleashed
song "where no life dwells"
from "Where no life dwells"
transcrito por Richy death electroviolence@bolivia.com

tono E-A-D-G-B-E

|----------------------------8-7-----|
|-----7_8-7-10-8-7-----7_8-7-----8---|
|--9----------------9----------------|
|------------------------------------|
|------------------------------------|
|--0----------------0----------------|



|-----------10-8-------------7----------------------|
|-----7_8-7------10----7_8-7---8-7----7_8-7-10-8-7--|
|--9----------------9--------------9----------------|
|---------------------------------------------------|
|---------------------------------------------------|
|--0----------------0--------------0----------------|



|---------------------------------------------7----------------|
|----------7-8-10-8-7-8-10-8---------7-8-10-7---7-10-7---------|
|--9-9-9-9-------------------9-9-9-9-------------------7-7-7-7-|
|--------------------------------------------------------------|
|--------------------------------------------------------------|
|--0-0-0-0-------------------0-0-0-0-------------------0-0-0-0-|



|--10-8-7_8_7---------------------------7-------------------|
|-------------8-10-8-7---------7-8-10-7---7-10-7------------|
|----------------------9-9-9-9-------------------9-9-9-9----|
|-----------------------------------------------------------|
|-----------------------------------------------------------|
|----------------------0-0-0-0-------------------0-0-0-0----|



|----------7---------------10-8-7_8_7-------------------|
|-7-8-10-7---7-8-7--------------------8-10-8-7----------|
|------------------7-7-7-7---------------------9-9-9-9--|
|-------------------------------------------------------|
|-------------------------------------------------------|
|------------------0-0-0-0---------------------0-0-0-0--|


|------7------------------------------------------------|
|--7-8---8-7-8-10-8----------7_8_7---10-8---7-8---------|
|-------------------9-9-9-9--------9------9-----9-9-9-9-|
|-------------------------------------------------------|
|-------------------------------------------------------|
|-------------------0-0-0-0--------0------0-----0-0-0-0-|



|-----------------------------|
|-7_8_7---10-8---7-8----------|
|-------9------9-----7-7-7-7--|
|-----------------------------|
|-----------------------------|
|-------0------0-----0-0-0-0--|



|-10-8-7_8_7--------------------------|
|------------8-10-8-7---7-8-10-8-7----|
|---------------------9------------9--|
|-------------------------------------|
|-------------------------------------|
|---------------------0------------0--|

  Visit MetalTabs.com for more metal tablature

bottom separator

Contact Us | Privacy Policy | Disclaimer | Legal Notice
Copyright © 2001-2014 MetalTabs.com. All Rights Reserved.