top separator

Home

Forum

What's New

Submit a Tab

FAQ

Links

Contact Us

Link to Us

MuSpy.com

MetalTabs.com logo

Bands

0-9

A

B

C

D

E

F

G

H

I

J

K

L

M

N

O

P

Q

R

S

T

U

V

W

X

Y

Z

Search

What

Where
 

Unleashed - "The Immortals" Guitar Tab

Plain Text Version
More Unleashed Tabs

Hits: 2762
Updated: 2004-09-08 16:23:54

 

By:

sendpm.gif

email.gif

Important note
This tab is available online because we obtained explicit permission from Unleashed or their label.


#----------------------------------PLEASE NOTE---------------------------------#
#This file is the author's own work and represents their interpretation of the #
#song. You may only use this file for private study, scholarship, or research. #
#Unless specified otherwise, this is NOT an official tab from the band members.#
#------------------------------------------------------------------------------#

  Visit MetalTabs.com for more metal tablature
  
UNLEASHED-THE IMMORTALS
Album - SHADOWS IN THE DEEP
The IMMORTALS

Transcrito por _Richy Metal (El infierno desde Pampahasi...)

correcciones y sugerencias (electroviolence@bolivia.com)




Tuning: B E A D F# B



|------------------------|--------------------------|
|------------------------|--------------------------|
|------------------------|--------------------------|
|------------------------|--------------------------|
|--2-----2---------------|--2-----2---------------4-|
|--0-0-0-0-0-0--3h6-2-1--|--0-0-0-0-0-0---3h6-2-1---|
     . .   . .                . .   . .


|------------------------|--------------------------|
|------------------------|--------------------------|
|------------------------|--------------------------|
|------------------------|--------------------------|
|--2-----2---------------|--2-----2---------------4-|
|--0-0-0-0-0-0--3h6-2-1--|--0-0-0-0-0-0---3h6-2-1---|
     . .   . .                . .   . .

  Rise...
|----------------------|
|----------------------|
|----------------------|
|----------------------|
|--2-------------------|
|--0-----3-6-3-2-1-(1)-|


   my armies...          with power...            from hell...      We march
|----------------------||----------------------||----------------------|
|----------------------||----------------------||----------------------|
|----------------------||----------------------||----------------------|
|----------------------||----------------------||----------------------|
|--2----------------4--||--2-------------------||--2----------------4--|
|--0-----3-6-3-2-1-----||--0-----3-6-3-2-1-(1)-||--0-----3-6-3-2-1-----|



|------------------------|--------------------------|
|------------------------|--------------------------|
|------------------------|--------------------------|
|------------------------|--------------------------|
|--2-----2---------------|--2-----2---------------4-|
|--0-0-0-0-0-0--3h6-2-1--|--0-0-0-0-0-0---3h6-2-1---|
     . .   . .                . .   . .


|------------------------|--------------------------|
|------------------------|--------------------------|
|------------------------|--------------------------|
|------------------------|--------------------------|
|--2-----2---------------|--2-----2---------------4-|
|--0-0-0-0-0-0--3h6-2-1--|--0-0-0-0-0-0---3h6-2-1---|
     . .   . .                . .   . .


|-----------------|
|-----------------|
|-----------------|
|-----------------|
|--2-----------2--|
|--0--------0--0--| ///resbalar con la púa
            .


|----------------------------------------------------------|
|----------------------------------------------------------|
|----------------------------------------------------------|
|----------------------------------------------------------|
|--2---(2)---2--5---(5)---5---8---(8)---8---11--(11)-------|
|--0---(0)---0--3---(3)---3---6---(6)---6---9---(9)----9/--|



|-------------------------------------------------------|
|-------------------------------------------------------|
|-----------------------------------------6-6-6-6-------|
|---------------5-5-5-5---5--8-8-8-8---8--6--6-6-6------|
|--2---(2)---2--5--5-5-5--5--8--8-8-8--8--4-------------|
|--0---(0)---0--3---------3--6---------6------------9/--|





|--------------------------------------------------------|
|--------------------------------------------------------|
|--------------------------------------------------------|
|--------------------------------------------------------|
|-2------2-----------2-----4-2------2-----------2--------|
|-0--0-0-0--0-0-3-3----3-3---0--0-0-0--0-0-3-3----3-2-1--|
     . .    . . . .    . .      . .    . . . .    . .


|--------------------------------||---------------------|
|--------------------------------||---------------------|
|--------------------------------||---------------------|
|-----------------6--------------||-----------------6---|
|--2----5----8----4----5----3----||--2----5----8----4---|
|--0----3----6---------3----1----||--0----3----6--------|




|--------------------||--------------------|
|--------------------||--------------------|
|--------------------||--------------------|
|-----------------6--||--------------------|
|--2----5----3----4--||--2----5---4----3---|
|--0----3----1-------||--0----3---2----1---|

  Visit MetalTabs.com for more metal tablature

bottom separator

Contact Us | Privacy Policy | Disclaimer | Legal Notice
Copyright © 2001-2014 MetalTabs.com. All Rights Reserved.