top separator

Home

Forum

What's New

Submit a Tab

FAQ

Links

Contact Us

Link to Us

MuSpy.com

MetalTabs.com logo

Bands

0-9

A

B

C

D

E

F

G

H

I

J

K

L

M

N

O

P

Q

R

S

T

U

V

W

X

Y

Z

Search

What

Where
 

Gehenna - "Angelwings And Ravenclaws" Guitar Tab

Plain Text Version
More Gehenna Tabs

Hits: 3717
Rated: 4.00 out of 5 (1 vote)
Updated: 2005-09-14 06:10:55

 

By:

Daniil

sendpm.gif

email.gif

Important note
This tab is available online because we obtained explicit permission from Gehenna or their label.


#----------------------------------PLEASE NOTE---------------------------------#
#This file is the author's own work and represents their interpretation of the #
#song. You may only use this file for private study, scholarship, or research. #
#Unless specified otherwise, this is NOT an official tab from the band members.#
#------------------------------------------------------------------------------#

  Visit MetalTabs.com for more metal tablature
  
GEHENNA-Angelwings And Ravenclaws
First Spell-1994
Copyright Head Not Found Records
Transcribed by Daniil Laletin
e-mail: dlaletin@mail.ru
version 1.5 July 2004

All corrections are welcome.

 " - tremolo
 / - slide down
 \ - slide up
 . - palm mute
 ~ - long sound
 x - rest
 p - pull off
 h - hammer on

Tuning from low to high: E A D G B E
====================================

 Riff 1
|-------------------------------------|
|-------------------------------------|
|-------------------------------------|
|-------------------------------------|
|-9-9-5-5-9-9-5-5-10-10-10-10-7-7-7-7-| <guitar
|-7-7-7-7-7-7-7-7--8--8--8--8-5-5-5-5-| <bass

|---------------------------------|
|---------------------------------|
|---------------------------------|
|---------------------------------|
|-9-9-5-5-9-9-5-5-8-8-8-8-8-8-7-7-| <guitar
|-7-7-7-7-7-7-7-7-6-6-6-6-6-6-5-5-| <bass

 Keyboard line for Riff 1
|-7"---|
|-7"---| Just tremolo this
|------| notes during whole
|------|        riff
|------|
|------|


 Riff 2 (guitar + keyboard)
|------------------|
|-10~--------------|
|-------9~---10~---|
|------------------|
|------------------|
|------------------|
|
|------------------|
|------------------|
|------------------|
|--7---------------|
|--5----7-----8----|
|-------5-----6----|



 Riff 3 (guitar + keyboard)
|--------------------------------------|
|--------------------------------------|
|-7-7-9-10---------9-9-10-12-10-10-9-9-|
|----------7-7-7-7---------------------|
|--------------------------------------|
|--------------------------------------|
|
|--------------------------------------|
|--------------------------------------|
|--------------------------------------|
|-7-7-9-10---------9-9-10-12-10-10-9-9-|
|-5-5-7--8-7-7-7-7-7-7--8-10--8--8-7-7-|
|----------5-5-5-5---------------------|



 Riff 4 (guitar + keyboard)
|-----------------------------------------------------------------|
|-----------------------------------------------------------------|
|-9-9-9-9-7-7-7-7-5-5-5-5-5-5-5-5-9-9-9-9-5-5-5-5-4-4-4-4-4-4-4-4-|
|-----------------------------------------------------------------|
|-----------------------------------------------------------------|
|-----------------------------------------------------------------|
|
|-----------------------------------------------------------------|
|-----------------------------------------------------------------|
|-----------------------------------------------------------------|
|-----------------------------------------------------------------|
|-7-7-7-7-5-5-5-5-3-3-3-3-3-3-3-3-7-7-7-7-3-3-3-3-2-2-2-2-2-2-2-2-|
|-5-5-5-5-3-3-3-3-1-1-1-1-1-1-1-1-5-5-5-5-1-1-1-1-0-0-0-0-0-0-0-0-|


 Ending Riff + Keyobard line for R1
|-------------------------------------|
|-------------------------------------|
|-------------------------------------|
|-------------------------------------|
|-9-9-5-5-9-9-5-5-10-10-10-10-7-7-7-7-| <guitar
|-7-7-7-7-7-7-7-7--8--8--8--8-5-5-5-5-| <bass

|----------------------------------|
|----------------------------------|
|----------------------------------|
|----------------------------------|
|-9-9-5-5-9-9-5-5-8-8-8-8-8-8-7-88-| <guitar
|-7-7-7-7-7-7-7-7-6-6-6-6-6-6-5-66-| <bass

  Visit MetalTabs.com for more metal tablature

bottom separator

Contact Us | Privacy Policy | Disclaimer | Legal Notice
Copyright © 2001-2014 MetalTabs.com. All Rights Reserved.