top separator

Home

Forum

What's New

Submit a Tab

FAQ

Links

Contact Us

Link to Us

MetalTabs.com logo

Bands

0-9

A

B

C

D

E

F

G

H

I

J

K

L

M

N

O

P

Q

R

S

T

U

V

W

X

Y

Z

Search

What

Where
 

Alkonost - "years of prophecy" Guitar Tab

Plain Text Version
More Alkonost Tabs

Hits: 5320
Rated: 4.00 out of 5 (10 votes)
Updated: 2004-05-15 12:34:14

 

By:

Darkenelf

sendpm.gif

email.gif

Important note
This tab is available online because we obtained explicit permission from Alkonost or their label.


#----------------------------------PLEASE NOTE---------------------------------#
#This file is the author's own work and represents their interpretation of the #
#song. You may only use this file for private study, scholarship, or research. #
#Unless specified otherwise, this is NOT an official tab from the band members.#
#------------------------------------------------------------------------------#

  Visit MetalTabs.com for more metal tablature
  
Band: Alkonost
Album: Alkonost
Song: Years of Prophecy
Tabbed by: Martijn Wietsma
Tab Date: 15-05-2004
Email: northerland@yahoo.co.uk
Version: 0.1

Standard E Tuning

riff A (Intro solo-1)
|---7---5------5--------5----------------------------------|
|-5---5---8------8-7------8-7------------------------------|
|-----------7--------5-------------------------------------|
|----------------------------------------------------------|
|----------------------------------------------------------|
|----------------------------------------------------------|
                                                (4x)
riff B (Bass Part)

riff C (0:27)
|----------------------------------------------------------|
|----9-----------------9-----------------------------------|
|----9-------7-5-------9-----------------------------------|
|-9--9--5/7--7-5----9--9--5/7--/12--------------9----------|
|-7-----3/5---------7-----3/5--/10---(4x)-------7----------|
|----------------------------------------------------------|

riff D (0:58)
|----------------------------------------------------------|
|----------------------------------------------------------|
|----------------------------------------------------------|
|-9999-7--9999-7-------------------------------------------|
|-7777-7--7777-7-10p9--7777-555-7777-5/7/9-----------------|
|----------------------5555-333-5555-3/5/7-----------------|
                                                (2x)
riff E (missing) (2x)

riff F (1:26) (solo-2)
|----------------------------------------------------------|
|----------------------------------------------------------|
|----------------------------------------------------------|
|---9~-7-------------------7-------------------------------|
|-7------10p9----9h10-7~-----10p9----9h10------------------|
|-------------10------------------10-----------------------|
                                                (4x)
repeat riff C 4x (1:53)

riff G (2:22) (solo-3)
|-3-3p2------5-5p3p2---3-3p2------5-5p3p2------------------|
|-------3h5------------------3h5---------------------------|
|----------------------------------------------------------|
|----------------------------------------------------------|
|----------------------------------------------------------|
|----------------------------------------------------------|

|-3-3p2------5-5p3p2---3-3p2-------------------------------|
|-------3h5------------------3h5~--------------------------|
|----------------------------------------------------------|
|----------------------------------------------------------|
|----------------------------------------------------------|
|----------------------------------------------------------|

riff H (solo-4)
|-3-3p2------5-5p3p2---3-3p2------5-5p3p2------------------|
|-------3h5------------------3h5---------------------------|
|----------------------------------------------------------|
|----------------------------------------------------------|
|----------------------------------------------------------|
|----------------------------------------------------------|

|-3-3p2------5-5p3p2---3-7~--7-5-3-2-----------------------|
|-------3h5------------------------------------------------|
|----------------------------------------------------------|
|----------------------------------------------------------|
|----------------------------------------------------------|
|----------------------------------------------------------|

repeat riff F 4x (2:48)

riff I (chords) (3:15)
|----------------------------------------------------------|
|----------------------------------------------------------|
|-----7----------------------------------------------------|
|-9---5---7---5--------------------------------------------|
|-7-------5---3---5---7------------------------------------|
|-----------------3---5------------------------------------|
                                                (8x)
riff J (solo-5) (3:15)
|---7---5-------------------7---5---------5h7h8------------|
|-5---5---5h7h8-8p7p5-----5---5---5h7h8-8------------------|
|---------------------7------------------------------------|
|----------------------------------------------------------|
|----------------------------------------------------------|
|----------------------------------------------------------|

|---7---5-------------------5---2h3~--2-3-5-3-2------------|
|-5---5---5h7h8-8p7p5-----3---3-----------------5-3-(5)----|
|---------------------7------------------------------------|
|----------------------------------------------------------|
|----------------------------------------------------------|
|----------------------------------------------------------|
                                                (2x)
riff K (3:44)
|----------------------------------------------------------|
|----------------------------------------------------------|
|-----7----------------------------------------------------|
|-9---5---7---5---5/7--------------------------------------|
|-7-------5---3---3/5--------------------------------------|
|----------------------------------------------------------|
                                                (2x)
repeat riff J 2x
repeat riff I 8x

riff L (4:37)
|----------------------------------------------------------|
|----------------------------------------------------------|
|-----7----------------------------------------------------|
|-9---5---7---5---5/7-----------2~~------------------------|
|-7-------5---3---3/5---(2x)----2--------------------------|
|-------------------------------0--------------------------|

riff M (5:09)
|----------------------------------------------------------|
|----------------------------------------------------------|
|----------5-----------------------------------------------|
|-5-55/-7----8p7p5-----------------------------------------|
|-3-33/-5-----------7-77-77---7-77-77----------------------|
|-------------------5-55-55---5-55-55----------------------|

riff N (solo-6)
|-5----5----5h7----5h-------5~----5----5-------------------|
|---5----5------5-----8p7-8----5----5----8p7p5-------------|
|----------------------------------------------------------|
|----------------------------------------------------------|
|----------------------------------------------------------|
|----------------------------------------------------------|
                                                (4x)

(End of song)

  Visit MetalTabs.com for more metal tablature

bottom separator

Contact Us | Privacy Policy | Disclaimer | Legal Notice
Copyright © 2001-2014 MetalTabs.com. All Rights Reserved.