top separator

Home

Forum

What's New

Submit a Tab

FAQ

Links

Contact Us

Link to Us

MetalTabs.com logo

Bands

0-9

A

B

C

D

E

F

G

H

I

J

K

L

M

N

O

P

Q

R

S

T

U

V

W

X

Y

Z

Search

What

Where
 

Fleshcrawl - "Legions Of Hatred" Guitar Tab

Plain Text Version
More Fleshcrawl Tabs

Hits: 2717
Updated: 2004-05-15 12:33:41

 

By:

Daniil

sendpm.gif

email.gif

Important note
This tab is available online because we obtained explicit permission from Fleshcrawl or their label.


#----------------------------------PLEASE NOTE---------------------------------#
#This file is the author's own work and represents their interpretation of the #
#song. You may only use this file for private study, scholarship, or research. #
#Unless specified otherwise, this is NOT an official tab from the band members.#
#------------------------------------------------------------------------------#

  Visit MetalTabs.com for more metal tablature
  
FLESHCRAWL-Legions Of Hatred
Soulskinner-2001
Transcribed by Daniil Laletin
e-mail: dlaletin@mail.ru
version 1.0 January 2004

All corrections are welcome.

 " - tremolo
 / - slide down
 \ - slide up
 . - palm mute
 ~ - long sound
 x - rest
 p - pull off
 h - hammer on


Intro
|-----------------------------------------------------|
|-----------------------------------------------------|
|-----------------------------------------------------|
|-9------------8---------8--9-------------------------|
|-7------------6---------6--7---------------10"----9"-|
|----------------------------------------8"-----7"----|
|
|-----------------------------------------------------|
|-----------------------------------------------------|
|-----------------------------------------------------|
|-----------------------------------------------------|
|----7"-9"-10"----10"-9"-6"----7"-9"-10"----10"----9"-|
|-0"-----------8"-----------0"-----------8"-----7"----|



Riff 1
|---------------------------------------------------------|
|---------------------------------------------------------|
|---------------------------------------------------------|
|---------------------------------------------------------|
|----7"-9"-10"----10"-9"-6"----7"-9"-10"----10"-12"-10"9"-|
|-0"-----------8"-----------0"-----------8"---------------|

|-----------------------------------------------------|
|-----------------------------------------------------|
|-----------------------------------------------------|
|-----------------------------------------------------|
|----7"-9"-10"----10"-9"-6"----7"-9"-10"----10"----9"-|
|-0"-----------8"-----------0"-----------8"-----7"----|



Riff 2
|--------------------------------------------------|
|--------------------------------------------------|
|--------------------------------------------------|
|--------------------------------------------------|
|-------10"-7"---6"-9"-6"---------10"-7"---6"-9"---|
|-0"-7"---------------------0"-7"------------------|

|--------------------------------------------------|
|--------------------------------------------------|
|--------------------------------------------------|
|--------------------------------------------------|
|-------10"-7"---6"-9"-6"---------10"-7"---6"-8-9--|
|-0"-7"---------------------0"-7"-------------6-7--|



Riff 3
|----------------------------------------|
|----------------------------------------|
|----------------------------------------|
|----------------------------------------|
|----------------------------------------|
|-0"-7-5-8"--5"-7"-3"--0"-7-5-8"--5"-7"--|
|    . .                  . .
|----------------------------------------|
|----------------------------------------|
|----------------------------------------|
|----------------------------------------|
|--------10"-7"-9"-5"---------10"-7"-9"--|
|-0"-7-5---------------0"-7-5------------|
     . .                  . .
|----------------------------------------|
|----------------------------------------|
|----------------------------------------|
|----------------------------------------|
|----------------------------------------|
|-0"-7"5"8"--5"-7"-3"--0"-7"5"8"--5"-7"--|
|
|----------------------------------------|
|----------------------------------------|
|----------------------------------------|
|--------10"-7"-9"-5"-----5"4"10"-7"-9"--|
|----9"7"--------------7"----------------|
|-0"-------------------------------------|


Alternate ending of Riff 3
|----------------------------------------|
|----------------------------------------|
|----------------------------------------|
|----------------------------------------|
|------------------------------------5-5-|
|-0"-7"5"8"--5"-7"-3"--0"-7"5"8"--5"-3-3-|
|
|----------------------------------------|
|----------------------------------------|
|----------------------------------------|
|--------10"-7"-9"-5"-----5"4"10"-7"-----|
|----9"7"--------------7"------------5-5-|
|-0"---------------------------------3-3-|



Riff 4a
|-------------------------------------------------------|
|-------------------------------------------------------|
|-------------------------------------------------------|
|-------------------------------------------------------|
|-2-----------------------2-2-2-2-2-2-2-2-2-5h6p5-3h5p2-|
|-0-----------------------0-0-0-0-0-0-0-0-0-------------|
|
|-------------------------------------------------------|
|-------------------------------------------------------|
|-------------------------------------------------------|
|----2"-------5"----4"-5"----2"-------5"----------------|
|-------3"-2"----3"-------------3"-2"----3"-5h6p5-3h5p2-|
|-0"----------------------0"----------------------------|


Riff 4b
|-------------------------------------------------------|
|-------------------------------------------------------|
|-------------------------------------------------------|
|----2"-------5"----4"-5"----2"-------5"----------------|
|-------3"-2"----3"-------------3"-2"----3"-5h6p5-3h5p2-|
|-0"----------------------0"----------------------------|



Riff 5
|-----------------------------------------------------------------------------|
|-----------------------------------------------------------------------------|
|-----------------------------------------------------------------------------|
|-----------------------------------------------------------------------------|
|-2-2-2-2-5h6p5-3h5p2-2-2-2-2-5h6p5-3h5p2-2-2-2-2-5h6p5-3h5p2-2-2-2-2-5h6p5-5-|
|-0-0-0-0-------------0-0-0-0-------------0-0-0-0-------------0-0-0-0-------3-|
|
|-----------------------------------------------------------------------------|
|-----------------------------------------------------------------------------|
|-------------------------------------------------------------------------a.h.|
|---------------------------------------------------------------------------5-|
|-2-2-2-2-5h6p5-3h5p2-2-2-2-2-5h6p5-3h5p2-2-2-2-2-5h6p5-3h5p2-2-2-2-2-5h6p5---|
|-0-0-0-0-------------0-0-0-0-------------0-0-0-0-------------0-0-0-0---------|

|-----------------------------------------------------------------------------|
|-----------------------------------------------------------------------------|
|-----------------------------------------------------------------------------|
|-----------------------------------------------------------------------------|
|-2-2-2-2-5h6p5-3h5p2-2-2-2-2-5h6p5-3h5p2-2-2-2-2-5h6p3-3h5p2-2-2-2-2-5h6p5-5-|
|-0-0-0-0-------------0-0-0-0-------------0-0-0-0-------------0-0-0-0-------3-|
|
|-----------------------------------------------------------------------------|
|-----------------------------------------------------------------------------|
|-----------------------------------------------------------------------------|
|-----------------------------------------------------------------------------|
|-2-2-2-2-5h6p5-3h5p2-2-2-2-2-5h6p5-3h5p2-2-2-2-2-5h6p3-3h5p2-2-2-2-2-5h6p5-5-|
|-0-0-0-0-------------0-0-0-0-------------0-0-0-0-------------0-0-0-0-------3-|

|-----------------------------------------------------------------------------|
|-----------------------------------------------------------------------------|
|-----------------------------------------------------------------------------|
|-----------------------------------------------------------------------------|
|-2-2-2-2-5h6p5-3h5p2-2-2-2-2-5h6p5-3h5p2-2-2-2-2-5h6p5-3h5p2-2-2-2-2-5h6p5-5-|
|-0-0-0-0-------------0-0-0-0-------------0-0-0-0-------------0-0-0-0-------3-|
|
|-----------------------------------------------------------------------------|
|-----------------------------------------------------------------------------|
|------------------------------------------------------------------------a.h.-|
|-----------------------------------------------------------------------6---5-|
|-2-2-2-2-5h6p5-3h5p2-2-2-2-2-5h6p5-3h5p2-2-2-2-2-5h6p5-3h5p2-2-2-2-2---------|
|-0-0-0-0-------------0-0-0-0-------------0-0-0-0-------------0-0-0-0---------|

|-----------------------------------------------------------------------------|
|-----------------------------------------------------------------------------|
|-----------------------------------------------------------------------------|
|-----------------------------------------------------------------------------|
|-2-2-2-2-5h6p5-3h5p2-2-2-2-2-5h6p5-3h5p2-2-2-2-2-5h6p3-3h5p2-2-2-2-2-5h6p5-5-|
|-0-0-0-0-------------0-0-0-0-------------0-0-0-0-------------0-0-0-0-------3-|
|
|-----------------------------------------------------------------------------|
|-----------------------------------------------------------------------------|
|-----------------------------------------------------------------------------|
|-----------------------------------------------------------------------------|
|-2-2-2-2-5h6p5-3h5p2-2-2-2-2-5h6p5-3h5p2-2-2-2-2-5h6p3-3h5p2-2-2-2-2-5h6p5-5-|
|-0-0-0-0-------------0-0-0-0-------------0-0-0-0-------------0-0-0-0-------3-|


Fill 1                        Solo riff               Fill 2
|------------------------|   |-------------------|   |---------------|
|------------------------|   |-------------------|   |---------------|
|------------------------|   |-------------------|   |---------------|
|-2----------------------|   |-------------------|   |---------------|
|-2--------------5-4-7-5-|   |-------5h6p5-3h5p2-|   |-------5-4-7-5-|
|-0--------------3-2-5-3-|   |-0"----------------|   |-0"----3-2-5-3-|




Riff 6
|---------------------------------------------|
|---------------------------------------------|
|---------------------------------------------|
|---------------------------------------------|
|-2--/9-10--10--/9-6--2--/9-10--10--/12--10-9-|
|-0----------8--------0----------8------------|
|
|---------------------------------------------|
|---------------------------------------------|
|---------------------------------------------|
|---------------------------------------------|
|-2--/9-10--10--/9-6--2--/9-10--10--/12--10-9-|
|-0----------8--------0----------8------------|

|---------------------------------------------|
|---------------------------------------------|
|----/11-12------/11-8-----/11-12-------11-12-|
|------------10--------------------10-9-------|
|-7---------------------7---------------------|
|---------------------------------------------|
|
|---------------------------------------------|
|---------------------------------------------|
|---------------------------------------------|
|---------------------------------------11-12-|
|-2--/9--10--10--/9--6--2--/9--10--10-9--9-10-|
|-0-----------8---------0-----------8-7-------|



Riff 7
|---------------------------------------------------------------------|
|---------------------------------------------------------------------|
|---------------------------------------------------------------------|
|---------------------------------------------------------------------|
|-------9-----10-7-------9-----7-6-------9-----10-7-------12-----10-9-|
|-0-0-0---0-0------8-8-8---8-8-----0-0-0---0-0------8-8-8----8-8------|

|---------------------------------------------------------------------|
|---------------------------------------------------------------------|
|---------------------------------------------------------------------|
|---------------------------------------------------------------11-12-|
|-------9-----10-7-------9-----7-6-------9-----10-7-10-10-10-9---9-10-|
|-0-0-0---0-0------8-8-8---8-8-----0-0-0---0-0-------8--8--8-7--------|

  Visit MetalTabs.com for more metal tablature

bottom separator

Contact Us | Privacy Policy | Disclaimer | Legal Notice
Copyright © 2001-2014 MetalTabs.com. All Rights Reserved.