top separator

Home

Forum

What's New

Submit a Tab

FAQ

Links

Contact Us

Link to Us

MetalTabs.com logo

Bands

0-9

A

B

C

D

E

F

G

H

I

J

K

L

M

N

O

P

Q

R

S

T

U

V

W

X

Y

Z

Search

What

Where
 

Crowbar - "Self-Inflicted" Guitar Tab

Plain Text Version
More Crowbar Tabs

Hits: 4962
Updated: 2004-05-13 14:58:38

 

By:

Father Death

sendpm.gif

email.gif

Important note
This tab is available online because we obtained explicit permission from Crowbar or their label.


#----------------------------------PLEASE NOTE---------------------------------#
#This file is the author's own work and represents their interpretation of the #
#song. You may only use this file for private study, scholarship, or research. #
#Unless specified otherwise, this is NOT an official tab from the band members.#
#------------------------------------------------------------------------------#

  Visit MetalTabs.com for more metal tablature
  
Band:  CROWBAR
Album: Crowbar
Song:  Self-Inflicted

Transcribed by:        Chris Humeniuk
Email:  father_death_666@hotmail.com

Tuning: 2.5 steps down

Keys:
 ___ - palm mute
 / \ - slide


RIFF A:

|-------------------------------------------------------------|
|-------------------------------------------------------------|
|-------------------------------------------------------------|
|-5--3------------------5--3--5--2------------------6\5-3--5--|
|-5--3------------------5--3--5--2------------------6\5-3--5--|
|-3--1--1-1-1-1-1-1-1-1-3--1--3--0--0-0-0-0-0-0-0-0-4\3-1--3--|
        _______________             _______________

|----------------------------------------------------------|
|----------------------------------------------------------|
|----------------------------------------------------------|
|-3------------------5--3--5--2------------------6\5-3--5--|
|-3------------------5--3--5--2------------------6\5-3--5--|
|-1--1-1-1-1-1-1-1-1-3--1--3--0--0-0-0-0-0-0-0-0-4\3-1--3--| 3x
     _______________             _______________


RIFF B:

|---------------------------------|
|---------------------------------|
|------------------11-------------|
|-----10----10\9----9----8----8\7-|
|------8-----8\7----7----8----8\7-|
|-0-0-----0------0-----0-6--0-6\5-| 4x
  ___     _      _     _    _


RIFF A - 4x


RIFF B - 8x


FILL:

|--------------------------------|
|--------------------------------|
|--------------------------------|
|-5--3------------------5--3--5--|
|-5--3------------------5--3--5--|
|-3--1--1-1-1-1-1-1-1-1-3--1--3--|
        _______________


INTERLUDE:

|------------------------------------------------
|------------------------------------------------
|------------------------------------------------
|---------------------------------------5--4--3--
|-2-2--2-2-2---------2-2--2-2-2---------5--4--3--
|-0-0--0-0-0-/6--5~--0-0--0-0-0-/6--5~--3--2--1--
  ___  _____         ___  _____

 -----------------------------------------|     |------------------------|
 -----------------------------------------|     |------------------------|
 -----------------------------------------|     |------------------------|
 -1-1--1-1-1-4--3--4--1-1--1-1-1-4--3--4--|     |-2----------------------|
 -1-1--1-1-1-4--3--4--1-1--1-1-1-4--3--4--|     |-2----------------------|
 ------------2--1--2-------------2--1--2--| 3x  |-0----------------------|
  ___  _____          ___  _____


RIFF C:

|--------------------------|     |--------------------------|
|--------------------------|     |--------------------------|
|--------------------------|     |--------------------------|
|-2---2-5--4---2--2-8-7-5--|     |-2---2-5--4--------8-7-5--|
|-2---2-3--2---2--2-8-7-5--|     |-2---2-3--2---2--2-8-7-5--|
|-0---0-3--2---0--0-6-5-3--| 3x  |-0---0-3--2---0--0-6-5-3--|
                                                ____

|--------------------------|
|--------------------------|
|--------------------------|
|-2---2-5--4---2--2-8-7-5--|
|-2---2-3--2---2--2-8-7-5--|
|-0---0-3--2---0--0-6-5-3--| 4x


OUTRO:

|----------------------------------------------
|----------------------------------------------
|-5---5---5------------------------------------
|-3---3---3---2--5--4--3---3---3-----------5-4-
|-3---3---3---2--3--2--1---1---1-----------5-4-
|-------------0--3--2--------------0-0-0-0-3-2-
                                   _______

 --------------------------------------|
 --------------------------------------|
 -5---5---5----------------------------|
 -3---3---3---2--5--4--3---3---3-----2-|
 -3---3---3---2--3--2--1---1---1---2-2-|
 -------------0--3--2--1---1---1---0-0-|
                                   _

  Visit MetalTabs.com for more metal tablature

bottom separator

Contact Us | Privacy Policy | Disclaimer | Legal Notice
Copyright © 2001-2014 MetalTabs.com. All Rights Reserved.