top separator

Home

Forum

What's New

Submit a Tab

FAQ

Links

Contact Us

Link to Us

MuSpy.com

MetalTabs.com logo

Bands

0-9

A

B

C

D

E

F

G

H

I

J

K

L

M

N

O

P

Q

R

S

T

U

V

W

X

Y

Z

Search

What

Where
 

Bongzilla - "Greenthumb" Guitar Tab

Plain Text Version
More Bongzilla Tabs

Hits: 9140
Rated: 4.17 out of 5 (12 votes)
Updated: 2004-05-12 05:13:58

 

By:

Cunty Shunt

sendpm.gif

email.gif

Important note
We did our best to reach Bongzilla and ask for their permission to publish this tab. Unfortunately they did not respond to our requests or we could not find a way to contact them. This tab is available online until Bongzilla tells us to take it down.


#----------------------------------PLEASE NOTE---------------------------------#
#This file is the author's own work and represents their interpretation of the #
#song. You may only use this file for private study, scholarship, or research. #
#Unless specified otherwise, this is NOT an official tab from the band members.#
#------------------------------------------------------------------------------#

  Visit MetalTabs.com for more metal tablature
  
Band:  (Bongzilla)
Album: (Gateway)
Song:  (Greenthumb)

Copyright (c)  (Relapse) (2001)
Version 1.0 - (2004)

Transcribed By: (Cunty Shunt)
Email:          (jimharas@yahoo.com)


.  - palm mute           /  - slide up to
\  - slide down to       ~  - vibrato
h  - hammer on           b  - Bend
p  - pull off            Suffixes for bend
t  - tap                 f  - full bend    h - half bend
ph - pinched harmonic    q  - quarter bend t - tap bend
*  - see comment         ^  - Hold bend    r release bend
x  - Stuccatto           ~  - vibrato bend
,  - slight palm mute    () - ghost note, sustained note
"  - tremolo note        <> - Trill

Tunning Drop the E chord (like Helmet)

Riff 1                   repeat a bunch
|-------------------------------------------------------------------|
|-------------------------------------------------------------------|
|-------------------------------------------------------------------|
|-0-2-5-7--7-5-7-5-7--5-2-0--0-2-5-7---8-7-5-2----5-2-///-----------|
|-0-2-5-7--7-5-7-5-7--5-2-0--0-2-5-7---8-7-5-2----5-2-///-----------|
|-0-2-5-7--7-5-7-5-7--5-2-0--0-2-5-7---8-7-5-2----5-2-///-----------|

Riff 2        x3         4th time
|------|------------|-------------------------------------------------|
|------|------------|-------------------------------------------------|
|------|------------|-------------------------------------------------|
|------|------------|-------------------------------------------------|
|------|------------|-------------------------------------------------|
|------|-2-5-4-2-0--|-----5-7-8-7-5-----------------------------------|
Note: After you play the whole riff 2 twice make it heavier with the power chord

Riff 3
|-------------------------------------------------------------------|
|-------------------------------------------------------------------|
|-------------------------------------------------------------------|
|----2--5-5-2-2-0-2--5-5-7-8-7-5-2----------------------------------|
|----2--5-5-2-2-0-2--5-5-7-8-7-5-2----------------------------------|
|----2--5-5-2-2-0-2--5-5-7-8-7-5-2----------------------------------|

Riff 4     x3              then
|-----------------------|--------------------------------------------|
|-----------------------|--------------------------------------------|
|-----------------------|--------------------------------------------|
|-------0-2-2-0-0-2-5---|----0-8-8-8-8-7-5---------------------------|
|-------0-2-2-0-0-2-5---|----0-8-8-8-8-7-5---------------------------|
|-------0-2-2-0-0-2-5---|----0-8-8-8-8-7-5---------------------------|

Throught the song make palm mute notes when necessary
That's It!

  Visit MetalTabs.com for more metal tablature

bottom separator

Contact Us | Privacy Policy | Disclaimer | Legal Notice
Copyright © 2001-2014 MetalTabs.com. All Rights Reserved.