top separator

Home

Forum

What's New

Submit a Tab

FAQ

Links

Contact Us

Link to Us

MetalTabs.com logo

Bands

0-9

A

B

C

D

E

F

G

H

I

J

K

L

M

N

O

P

Q

R

S

T

U

V

W

X

Y

Z

Search

What

Where
 

Gut - "The taboo room" Guitar Tab

Plain Text Version
More Gut Tabs

Hits: 4767
Rated: 3.17 out of 5 (6 votes)
Updated: 2005-01-12 08:52:25

 

By:

adam bombsack

sendpm.gif

email.gif

Important note
This tab is available online because we obtained explicit permission from Gut or their label.


#----------------------------------PLEASE NOTE---------------------------------#
#This file is the author's own work and represents their interpretation of the #
#song. You may only use this file for private study, scholarship, or research. #
#Unless specified otherwise, this is NOT an official tab from the band members.#
#------------------------------------------------------------------------------#

  Visit MetalTabs.com for more metal tablature
  
Band:  GUT
Album: ODOUR OF TORTURE
Song:  THE TABOO ROOM

Copyright (c)  R.S.R. RECORDS/MORBID RECORDS/SPV 1994

Transcribed By: adam bombsack
Email:          verlindenmaarten@hotmail.com


.  - palm mute           /  - slide up to
  - slide down to       ~  - vibrato
h  - hammer on           b  - Bend
p  - pull off            Suffixes for bend
t  - tap                 f  - full bend    h - half bend
ph - pinched harmonic    q  - quarter bend t - tap bend
*  - see comment         ^  - Hold bend    r release bend
x  - Stuccatto           ~  - vibrato bend
,  - slight palm mute    () - ghost note, sustained note
"  - tremolo note        <> - Trill

Tunning B or something like that

Riff 1
|-------------------------------------------------------------------|
|-------------------------------------------------------------------|
|-------------------------------------------------------------------|
|-------------------------------------------------------------------|
|-3/5-5-5-5-8-8-8-8-7-7-7--3-3-5-5----------------------------------|
|-1/3-3-3-3-6-6-6-6-5-5-5--1-1-3-3----------------------------------|
                           . . . .

riff 2
|-------------------------------------------------------------------|
|-------------------------------------------------------------------|
|-------------------------------------------------------------------|
|-3/5-5-5-5-8-8-8-8-7-7-7-7-3-3-3-----------------------------------|
|-1/3-3-3-3-6-6-6-6-5-5-5-5-1-1-1-----------------------------------|
|-------------------------------------------------------------------|

riff 3
|-------------------------------------------------------------------|
|-------------------------------------------------------------------|
|-------------------------------------------------------------------|
|-------------------------------------------------------------------|
|-3/5-5-5-5-5-5-5--3/5-5-5-5-5-8------------------------------------|
|-1/3-3-3-3-3-3-3--1/3-3-3-3-3-6------------------------------------|


play riff 1 x 10
     riff 2 x 2
     riff 1 x 4
     riff 3 x 16 (+/-)

  Visit MetalTabs.com for more metal tablature

bottom separator

Contact Us | Privacy Policy | Disclaimer | Legal Notice
Copyright © 2001-2014 MetalTabs.com. All Rights Reserved.