top separator

Home

Forum

What's New

Submit a Tab

FAQ

Links

Contact Us

Link to Us

MetalTabs.com logo

Bands

0-9

A

B

C

D

E

F

G

H

I

J

K

L

M

N

O

P

Q

R

S

T

U

V

W

X

Y

Z

Search

What

Where
 

Dismember - "Dreaming In Red" Bass Tab

Plain Text Version
More Dismember Tabs

Hits: 8297
Rated: 3.63 out of 5 (19 votes)
Updated: 2004-05-09 05:59:59

 

By:

sendpm.gif

email.gif

Important note
This tab is available online because we obtained explicit permission from Dismember or their label.


#----------------------------------PLEASE NOTE---------------------------------#
#This file is the author's own work and represents their interpretation of the #
#song. You may only use this file for private study, scholarship, or research. #
#Unless specified otherwise, this is NOT an official tab from the band members.#
#------------------------------------------------------------------------------#

  Visit MetalTabs.com for more metal tablature
  
Band:  Dismember
Album: Indecent & Obscene
Song:  Dreaming In red (Bass intro)

Copyright (c)  Nuclear Blast

Transcribed By: Jarno Luukkonen
Email:          jarno_luukkonen@hotmail.com

Tunning E A D G


|---------------5---4-----------------------------------------------|
|---2---4---5-----------5----5-4-5----------------------------------|
|-------------------------------------------------------------------|
|-0---0---0---0---0---0---0-----------------------------------------|


|-------------------------------------------------------------------|
|---2---4---5---5---2---4----4-0-5----------------------------------|
|-3---3---3---3---3---3---3-----------------------------------------|
|-------------------------------------------------------------------|

END

  Visit MetalTabs.com for more metal tablature

bottom separator

Contact Us | Privacy Policy | Disclaimer | Legal Notice
Copyright © 2001-2014 MetalTabs.com. All Rights Reserved.