top separator

Home

Forum

What's New

Submit a Tab

FAQ

Links

Contact Us

Link to Us

MuSpy.com

MetalTabs.com logo

Bands

0-9

A

B

C

D

E

F

G

H

I

J

K

L

M

N

O

P

Q

R

S

T

U

V

W

X

Y

Z

Search

What

Where
 

Crowbar - "Holding Nothing" Guitar Tab

Plain Text Version
More Crowbar Tabs

Hits: 4023
Updated: 2004-05-07 05:40:27

 

By:

Father Death

sendpm.gif

email.gif

Important note
This tab is available online because we obtained explicit permission from Crowbar or their label.


#----------------------------------PLEASE NOTE---------------------------------#
#This file is the author's own work and represents their interpretation of the #
#song. You may only use this file for private study, scholarship, or research. #
#Unless specified otherwise, this is NOT an official tab from the band members.#
#------------------------------------------------------------------------------#

  Visit MetalTabs.com for more metal tablature
  
Band:  CROWBAR
Album: Crowbar
Song:  Holding Nothing

Transcribed by:        Chris Humeniuk
Email:  father_death_666@hotmail.com

Tuning: 2.5 steps down

Keys:
 / \ - slide
 ___ - palm mute
  b  - bend
  r  - release bend
 < > - pinch harmonic


RIFF A:

|-------------------------------------------------------------|
|-------------------------------------------------------------|
|-------------------------------------------------------------|
|-2-----/8-7--------/7-------7--2-----/8-7--------/7-------5--|
|-2----------8~--------8-7~--5--2----------8~--------8-7\--3--|
|-0---0-----------0----------5--0---0-----------0----------3--| 6x


RIFF B:

|-------------------------------------------------------------------
|-------------------------------------------------------------------
|---------------------------5----4---------------------------5----4-
|-------------5-4-----------3----2-------------5-4-----------3----2-
|----2-2----2-3-2-----------3----2----2-2----2-3-2-----------3----2-
|-00-0-0-00-0-3-2--------00---00---00-0-0-00-0-3-2---3br~-00---00---
  ___________            __   __   ___________            __   __

 -------------------------------------------------------------------|
 -------------------------------------------------------------------|
 ---------------------------5----4---------------------------5----4-|
 -------------5-4-----------3----2-------------5-4-----------3----2-|
 ----2-2----2-3-2-----------3----2----2-2----2-3-2---/5~-----3----2-|
 -00-0-0-00-0-3-2---/6~--00---00---00-0-0-00-0-3-2--------00---00---|
  ___________            __   __   ___________            __   __


RIFF A - 2x


RIFF B


RIFF A - 2x


FILL:

Gtr 1 plays Riff A 2x

(Gtr 2)
|-----------------------------------------------------------------|
|-----------------------------------------------------------------|
|-------/7-6--------/6------------------/7-6--------/6------------|
|-2----------7~--------7-<6>\-----2----------7~--------7-<6>\-----|
|-2---------------------------/5~-2---------------------------/3~-|
|-0---0-----------0---------------0---0-----------0---------------| 2x


OUTRO:

|-------------------------------------------------------------------
|-------------------------------------------------------------------
|---------------------------5----4---------------------------5----4-
|-------------5-4-----------3----2-------------5-4-----------3----2-
|----2-2----2-3-2-----------3----2----2-2----2-3-2-----------3----2-
|-00-0-0-00-0-3-2--------00---00---00-0-0-00-0-3-2---3br~-00---00---
  ___________            __   __   ___________            __   __

 -----------------------------------------------------------|
 -----------------------------------------------------------|
 ---------------------------5----4--------------------------|
 -------------5-4-----------3----2-------------5-4----------|
 ----2-2----2-3-2-----------3----2----2-2----2-3-2------/5~-|
 -00-0-0-00-0-3-2---/6~--00---00---00-0-0-00-0-3-2--0000----|
  ___________            __   __   ___________      ____

  Visit MetalTabs.com for more metal tablature

bottom separator

Contact Us | Privacy Policy | Disclaimer | Legal Notice
Copyright © 2001-2014 MetalTabs.com. All Rights Reserved.