top separator

Home

Forum

FAQ

Contact Us

Link to Us

MetalTabs.com logo

Bands

0-9

A

B

C

D

E

F

G

H

I

J

K

L

M

N

O

P

Q

R

S

T

U

V

W

X

Y

Z

Amon Amarth - "Where Silent Gods Stand Guard" Guitar Tab

Plain Text Version
More Amon Amarth Tabs

Hits: 9041
Rated: 3.82 out of 5 (22 votes)
Updated: 2004-05-06 05:15:51

By:

Corpsevomit98


#----------------------------------PLEASE NOTE---------------------------------#
#This file is the author's own work and represents their interpretation of the #
#song. You may only use this file for private study, scholarship, or research. #
#Unless specified otherwise, this is NOT an official tab from the band members.#
#------------------------------------------------------------------------------#

  Visit MetalTabs.com for more metal tablature
  
Band:  Amon Amarth
Album: Versus The World
Song:  Where Silent Gods Stand Guard

Copyright   Metal Blade Records
Version 1.0

Transcribed By: John the Unholy
Email:          Corpsevomit98@hotmail.com

Tuning (B) (BEADGB)

Legend
  Tremolo Pick              / or \ - slide up or down
.  Palm Mute                   p.h  - pinch harmonic

.1 = Guitar 1
.2 = Guitar 2

A.1
|----------------------------------------|
|----------------------------------------|
|----------------------------------------|
|-----------4-6------4-------------------|
|--------------------------6---------6---|
|------------------------4---------4-----|

A.2 (played only in intro)
|----------------------------------------|
|----------------------------------------|
|--------------------4-------------------|
|-2------------------4--6---------6------|
|-2------------------2--6---------6------|
|-0---------------------4---------4------|


AA.2
|----------------------------------------|
|----------------------------------------|
|----------------------------------------|
|----------------------------------------|
|-22--2---22--2-----4--66-6--------66-6--|
|-00--0---00--0-----2--44-4--------44-4--|

B.1
|-------(3x)----------|---------------------|
|---------------------|---------------------|
|---------------------|---------------------|
|-22-2-22-2-22-2-22-2-|-66-6-66-6-66-6-66-6-|
|-22-2-22-2-22-2-22-2-|-66-6-66-6-66-6-66-6-|
|-00-0-00-0-00-0-00-0-|-44-4-44-4-44-4-44-4-|
  ..   ..   ..   ..     ..   ..   ..   ..

C.1
|----------------------|
|----------------------|
|----------------------|
|-6--4"-6---9-7-6-|
|----------------------|
|----------------------|

D.1
|------------------------------------------------------------------------
|------------------------------------------------------------------------
|------------------------------------------------------------------------
|-4-6---6-7---4-6------------------------4-6---6-7---4-6-----------------
|-----4-----4------4-4-4-4-4-4-4-2-2-2-2---------------------------------
|--------------------------------------------0-----0-----0-0-0-0-0-0-0-0-
      .     .      . . . . . . . . . . .     .     .     . . . . . . . .

---------------------------------------|
---------------------------------------|
---------4---4-6------------6---6-8----|
-6-7-4-6---6-----48-9-6-8---8-----6--|
---------------------------------------|
---------------------------------------|

E.1
|------------------------------|
|------------------------------|
|-8-8--8-8-8-8-8-8-8-8-8-8-8-8-|
|-6-6--6-6-6-6-6-6-6-6-6-6-6-6-|
|------------------------------|
|------------------------------|
       . . . . . . . . . . . .

F.1
|----------(2x)----------------|------------------------------|
|------------------------------|------------------------------|
|------------------------------|------------------------------|
|------6-9-8-9-6-8-9-8h9p8p6---|------6-7--4-6----------------|
|------------------------------|------------------------------|
|------------------------------|------------------------------|

F.2
|-------------(2x)-------------|-------------(2x)-------------|
|------------------------------|------------------------------|
|------------------------------|------------------------------|
|-6-6--6-6-6-6-6-6-6-6-6-6-6-6-|-2-2--2-2-2-2-2-2-2-2-2-2-2-2-|
|-6-6--6-6-6-6-6-6-6-6-6-6-6-6-|-2-2--2-2-2-2-2-2-2-2-2-2-2-2-|
|-4-4--4-4-4-4-4-4-4-4-4-4-4-4-|-0-0--0-0-0-0-0-0-0-0-0-0-0-0-|
       . . . . . . . . . . . .        . . . . . . . . . . . .

Solo
|-12-12-12-12----------12-12-12-12---------------------------------------
|-------------------------------------13-15--------13--------------------
|-------------13-13-13-------------14--------11-13-----11-13----13-14-11-
|------------------------------------------------------------------------
|------------------------------------------------------------------------
|------------------------------------------------------------------------

--------------------------------------------------------------------12-15
----11----1113------13-15-15-15----13-15--------13----15-15-----13------
-13----13--------13-----------------------13-15-----13-------------------
-------------------------------------------------------------------------
-------------------------------------------------------------------------
-------------------------------------------------------------------------

-------------------------------------------------------------------------
-11-13----13-15--------13------------16-/18-16-18-----14-16-16-16---16-17
-----------------11-13----11-13-13----------------16---------------------
-------------------------------------------------------------------------
-------------------------------------------------------------------------
-------------------------------------------------------------------------

----16-17--14-16-----------14-16---/1918-16h18p16-----14---|
-13----------------------------------------------------------|
-------------------------------------------------------------|
--------------------------This part behind riff A.1----------|
-------------------------------------------------------------|
-------------------------------------------------------------|

Behind Solo
|-------------------------------------------------------------------------|
|-------------------------------------------------------------------------|
|-------------------------------------------4-4-4-4-4-4-4-4-6-6-6-6-6-6-6-|
|-4-4-4-4-4-4-4-4-4-4-6-6-6-6-6-6-6-6-6-6-6-4-4-4-4-4-4-4-4-6-6-6-6-6-6-6-|
|-4-4-4-4-4-4-4-4-4-4-6-6-6-6-6-6-6-6-6-6-6-2-2-2-2-2-2-2-2-4-4-4-4-4-4-4-|
|-2-2-2-2-2-2-2-2-2-2-4-4-4-4-4-4-4-4-4-4-4-------------------------------|

If you like it please rate it

  Visit MetalTabs.com for more metal tablature

bottom separator

Contact Us | Privacy Policy | Disclaimer
Copyright © 2001-2014 MetalTabs.com. All Rights Reserved.