top separator

Home

Forum

What's New

Submit a Tab

FAQ

Links

Contact Us

Link to Us

MuSpy.com

MetalTabs.com logo

Bands

0-9

A

B

C

D

E

F

G

H

I

J

K

L

M

N

O

P

Q

R

S

T

U

V

W

X

Y

Z

Search

What

Where
 

Aborted - "Methiculous Invagination" Guitar Tab

Plain Text Version
More Aborted Tabs

Hits: 9736
Rated: 4.36 out of 5 (14 votes)
Updated: 2004-06-05 12:01:27

 

By:

johnmansley

sendpm.gif

email.gif

Important note
This tab is available online because we obtained explicit permission from Aborted or their label.


#----------------------------------PLEASE NOTE---------------------------------#
#This file is the author's own work and represents their interpretation of the #
#song. You may only use this file for private study, scholarship, or research. #
#Unless specified otherwise, this is NOT an official tab from the band members.#
#------------------------------------------------------------------------------#

  Visit MetalTabs.com for more metal tablature
  
Band:  Aborted
Album: Goremageddon: The Saw And The Carnage Done
Song:  Meticulous Invagination

Copyright (c)  (Listenable Records) (2003)
Version 2.0 - (05/06/04)

Transcribed By: John Mansley
Email:          john@smansley.freeserve.co.uk


.  - palm mute           /  - slide up to
\  - slide down to       ~  - vibrato
h  - hammer on           b  - Bend
p  - pull off            Suffixes for bend
t  - tap                 f  - full bend    h - half bend
ph - pinched harmonic    q  - quarter bend t - tap bend
*  - see comment         ^  - Hold bend    r release bend
x  - Stuccatto           ~  - vibrato bend
,  - slight palm mute    () - ghost note, sustained note
"  - tremolo note        <> - Trill
nh - natural harmonic    .  - (above note) staccato

Notes : Thanks go to Adam Wathan for help with corrections to
        Riffs A1, B, C1, C2 and E.  Thanks man!

Tuning: B E A D F# B


Riff A1:

|---------------------|---------------------|
|---------------------|---------------------|
|---------------------|---------------------|
|-3-------------------|-3-----------4-5-8-5-|
|-1-----2-----2-3-6-3-|-1-----2-----2-3-6-3-|
|---000-0-000-0-1-4-1-|---000-0-000---------|
    ...   ...             ...   ...


Riff B:

|--------------------|--------------------|
|--------------------|--------------------|
|--------------------|--------------------|
|----.--------.----.-|----.--------.----.-|
|-2222-----2222-2222-|-2222-----2222-2222-|
|-0000-----0000-0000-|-0000-----0000-0000-|


|--------------------|--------------------|
|--------------------|--------------------|
|----.--------.----.-|----.--------.----.-|
|-7777-----7777-7777-|-5555-----5555-5555-|
|-5555-----5555-5555-|-3333-----3333-3333-|
|-5555-----5555-5555-|-3333-----3333-3333-|


Riff C1:

|-----------------|-------------------|-----------------|
|-----------------|-------------------|-----------------|
|-----------------|-------------------|-----------------|
|-----------------|-------------------|-----------------|
|-----------------|-----2-0-3-0-5-0-6-|-----------------|
|-0-0-1-0-4-0-3-0-|-0-0---------------|-0-0-1-0-4-0-3-0-|
  . . . . . . . .   . .   .   .   .     . . . . . . . .


|-----------------|---------------------|
|-----------------|---------------------|
|-----------------|---------------------|
|-----------------|---------------------|
|-----2-0-3-0-5-0-|-6----6----5----3----|
|-0-0-------------|--444--444--333--111-|
  . .   .   .   .    ...  ...  ...  ...


Riff D:                        _______________________________
                                                           1,3|
|-----------------------------|--------------------------------|
|-----------------------------|--------------------------------|
|-----------------------------|--------------------------------|
|--------4\3-----------6\5----|--------4\3---------------------|
|-3\2----2\1----3\2----4\3----|-3\2----2\1----3\2-2-2-2-2-6----|
|-1\0-00-----00-1\0-00-----00-|-1\0-00-----00-1\0-0-0-0-0-4-00-|
      ..     ..     ..     ..       ..     ..     . . . .   ..
 ______________________________
                            2,4|
|-------------------------------|
|-------------------------------|
|-------------------------------|
|--------4\3--------------------|
|-3\2----2\1----3\2-2-2-2-2-2-2-|
|-1\0-00-----00-1\0-0-0-0-0-0-0-|
      ..     ..     . . . . . .


Riff E:             _________________  _________________
                                  1,3|               2,4|
|------------------|------------------|------------------|
|------------------|------------------|------------------|
|-3----------------|------------------|------------------|
|-1----------------|------------------|-2222333366663333-|
|--000000000000000-|-0000111144441111-|------------------|
|------------------|------------------|------------------|
   ...............


Riff A2:

|---------------------|---------------------|
|---------------------|---------------------|
|---------------------|---------------------|
|-3-------------------|-3-----------"-"-"-"-|
|-1-----2-----"-"-"-"-|-1-----2-----2-3-6-3-|
|---000-0-000-0-1-4-1-|---000-0-000---------|
    ...   ...             ...   ...


Riff F1:

|Gtr1
|-----------------|-----------------|
|-----------------|-----------------|
|-----------.-----|-----------------|
|-----------3---.-|-.---------------|
|-----------1---5-|-6-------6-5-3-5-|
|---------------3-|-4-------4-3-1-3-|
|                 |         . . . . |
|Gtr2             |                 |
|-----------------|-----------------|
|-----------------|-----------------|
|-----------------|-----------------|
|-----3-----3-----|-----3-----------|
|-2-3-1-2-3-1-2-5-|-6-2-1-2-6-5-3-5-|
|-0-1---0-1---0-3-|-4-0---0-4-3-1-3-|
  . .   . .   .       .   . . . . .


Riff F2:

|---------------------|-------------------|
|---------------------|-------------------|
|-----ph--------------|-----ph------------|
|-------------ph------|-------------------|
|-2-3-1bh-2-3-----2-3-|-2-3-1bh-2-6-5-3-5-|
|-0-1-----0-1-3bh-0-1-|-0-1-----0-4-3-1-3-|
  . .     . .     . .   . .     .


Riff F3:

|-----------------|-----------------|
|-----------------|-----------------|
|-----------------|-----------------|
|-----5-----6-----|-----5-----------|
|-4-5-3-4-5-4-4-7-|-4-5-3-4-8-7-5-7-|
|-2-3---2-3---2-5-|-2-3---2-6-5-3-5-|
  . .   . .   .     . .   .


Riff G:

|----------------|----------------|----------------|----------------|
|----------------|----------------|----------------|----------------|
|----------------|----------------|----------------|----------------|
|----------------|----------------|----------------|----------------|
|----------------|7777777777777777|5555555555555555|33333333--------|
|0000000000000000|----------------|----------------|--------1-4-3~-1|


Solo Backing:

|----------------|----------------|----------------|----------------|
|----------------|----------------|----------------|----------------|
|----------------|----------------|----------------|----------------|
|------9---7---5-|----------------|-7--------------|-5--------------|
|-2----7---5---3-|-2--------------|-5--------------|-3--------------|
|-0---0---0---0--|-0--------------|-5--------------|-3------1-4-3~-1|
      .   .   .


Solo: Bars should line up with the backing but listen to the CD for
      the correct timing

|---------------------------|----------------------------|
|---------------------------|----------------------------|
|-9---9-9h11-11/12-12/14-14/|/16~~~~~-------12h14-15bhrbh|
|---9-----------------------|----------12h14-------------|
|---------------------------|----------------------------|
|---------------------------|----------------------------|


|---------------------------|----------------------------|
|---------------------------|----------------------------|
|-hold---r-14p12-14~~-14-12-|-12h14p12-11/16~~~~~~~~~~---|
|---------------------------|----------------------------|
|---------------------------|----------------------------|
|---------------------------|----------------------------|


|---------------------------|-----------------15-17bhrbh-|
|---------------------------|----------151718------------|
|-----------------------/16-|-~~~~~~~~-------------------|
|-12h14~~~~~~~~~~~~~~~~-----|----------------------------|
|---------------------------|----------------------------|
|---------------------------|----------------------------|

                                                            ph
|-hold-------r-17p15-19~~~~-|-19-20-19h20p19-17-15----14-17-19~~-|
|---------------------------|----------------------15------------|
|---------------------------|------------------------------------|
|---------------------------|------------------------------------|
|---------------------------|------------------------------------|
|---------------------------|------------------------------------|


Riff C2:

|-----------------|
|-----------------|
|-----------------|
|-----------------|
|-----------------|
|-0-0-1-0-4-0-3-0-|
  . . . . . . . .


Ending:

|-----------------|
|-----------------|
|-----------------|
|-.---------------|
|-2---------------|
|-0---------------|



Song Structure:

Riff A1      (x2)
Riff B
Riff C1      (x3)
Riff D
Riff C
Riff E
Riff A2      (x2)
Riff F1
Riff F2      (x2)
Riff F1
Riff F3      (x2)
Riff F2      (x2)
Riff G       (x2)
                   _
Solo Backing (x2)  _| Solo played over this section

Riff B       (x4)
Riff C2      (x4)
Riff D
Riff C2      (x2)
Ending


It should all be there but if you spot a mistake or just want to
make a comment or suggestion then please don't hesitate to contact
me.  Your feedback is very much appreciated.

Also, I encourage you to register a rating for this tab - whether it
be a good or bad one.  The only way I know that a tab needs improving
or not is if people give it a rating.  Thanks in advance.


END

  Visit MetalTabs.com for more metal tablature

bottom separator

Contact Us | Privacy Policy | Disclaimer | Legal Notice
Copyright © 2001-2014 MetalTabs.com. All Rights Reserved.