top separator

Home

Forum

What's New

Submit a Tab

FAQ

Links

Contact Us

Link to Us

MuSpy.com

MetalTabs.com logo

Bands

0-9

A

B

C

D

E

F

G

H

I

J

K

L

M

N

O

P

Q

R

S

T

U

V

W

X

Y

Z

Search

What

Where
 

Corpsefucking Art - "All You Need Is Gore" Guitar Tab

Plain Text Version
More Corpsefucking Art Tabs

Hits: 3949
Rated: 5.00 out of 5 (6 votes)
Updated: 2004-05-02 06:19:46

 

By:

CarnivorousWind

sendpm.gif

email.gif

Important note
This tab is available online because we obtained explicit permission from Corpsefucking Art or their label.


#----------------------------------PLEASE NOTE---------------------------------#
#This file is the author's own work and represents their interpretation of the #
#song. You may only use this file for private study, scholarship, or research. #
#Unless specified otherwise, this is NOT an official tab from the band members.#
#------------------------------------------------------------------------------#

  Visit MetalTabs.com for more metal tablature
  
Band:  (Corpsefucking Art)
Album: (Splatter Deluxe)
Song:  (All You Need is Gore)

Transcribed By: (Charles Vosvick)
Email:          (CE_JediSith@msn.com)


.  - palm mute           /  - slide up to
\  - slide down to       ~  - vibrato
h  - hammer on           b  - Bend
p  - pull off            Suffixes for bend
t  - tap                 f  - full bend    h - half bend
ph - pinched harmonic    q  - quarter bend t - tap bend
*  - see comment         ^  - Hold bend    r release bend
x  - Stuccatto           ~  - vibrato bend
,  - slight palm mute    () - ghost note, sustained note
"  - tremolo note        <> - Trill

Tunning F# B E A C# F#

Riff 1:
|-------------------------------------------------------------------|
|-------------------------------------------------------------------|
|-------------------------------------------------------------------|
|--------------------------5555--------------------------5555-------|
|--4--3--6--5555--4--3--6--3333--4--3--6--5555--4--3--6--3333-------|
|--2--1--4--3333--2--1--4--------2--1--4--3333--2--1--4-------------|

Riff 2:
|-------------------------------------------------------------------|
|-------------------------------------------------------------------|
|-------------------------------------------------------------------|
|-------------------------------------------------------------------|
|--4--3-2--5--4-3--5-4--5--6-5--4--3-2--5--4-3--5-4--5--6-5---------|
|--2--1-0--3--2-1--3-2--3--4-3--2--1-0--3--2-1--3-2--3--4-3---------|

Riff 3
|-------------------------------------------------------------------|
|-------------------------------------------------------------------|
|-------------------------------------------------------------------|
|-------------------------------------------------------------------|
|-------------------------------------------------------------------|
|-5"--4"--3"--4"--5"--4"--7"--6"--5"--4"--3"--4"--5"--4"--7"--6"----|

Riff 1 Played 2
Riff 2 Played 3
Riff 3 Played 3
Riff 2 Played 2

Riff 3 is off.
END

  Visit MetalTabs.com for more metal tablature

bottom separator

Contact Us | Privacy Policy | Disclaimer | Legal Notice
Copyright © 2001-2014 MetalTabs.com. All Rights Reserved.