top separator

Home

Forum

What's New

Submit a Tab

FAQ

Links

Contact Us

Link to Us

MuSpy.com

MetalTabs.com logo

Bands

0-9

A

B

C

D

E

F

G

H

I

J

K

L

M

N

O

P

Q

R

S

T

U

V

W

X

Y

Z

Search

What

Where
 

Crowbar - "No Quarter" Guitar Tab

Plain Text Version
More Crowbar Tabs

Hits: 9581
Rated: 3.00 out of 5 (1 vote)
Updated: 2004-05-01 13:32:33

 

By:

Father Death

sendpm.gif

email.gif

Important note
This tab is available online because we obtained explicit permission from Crowbar or their label.


#----------------------------------PLEASE NOTE---------------------------------#
#This file is the author's own work and represents their interpretation of the #
#song. You may only use this file for private study, scholarship, or research. #
#Unless specified otherwise, this is NOT an official tab from the band members.#
#------------------------------------------------------------------------------#

  Visit MetalTabs.com for more metal tablature
  
Band:  CROWBAR
Album: Crowbar
Song:  No Quarter

Transcribed by:        Chris Humeniuk
Email:  father_death_666@hotmail.com

Tuning: 2.5 steps down

Keys:
  h  - hammer on
  p  - pull off
 / \ - slide


INTRO:

|-----------------------------------------------------------|
|-----------------------------------------------------------|
|-----------------------------------------------------------|
|-2-----5-4---4---------------2-----5-4---7---------4-4h5p4-|
|-2---------7----5~--0--0h2~--2---------7(7)--5--7----------|
|-0---0-----------------------0---0-------------------------| 2x


VERSE:

|-------------------------------------------------------------------------|
|-------------------------------------------------------------------------|
|-------------------------------------------------------------------------|
|-2------------5-4---4---------------2------------5-4---7---------4-4h5p4-|
|-2----------------7----5~--0--0h2~--2----------------7(7)--5--7----------|
|-0----------0-----------------------0----------0-------------------------| 2x


PRE-CHORUS:

|---------------------------------------------------------------
|---------------------------------------------------------------
|---------------------------------------------------------------
|-2------------5------------5-----------7--5--10------------10--
|-2------------3------------3-------2~--7--5---8-------------8--
|-0------------3------------3-----------5--3---8-------------8--

 --------------------------------------|
 --------------------------------------|
 -10-10-10-10--10-10-10-10--10-10-10\--|
 -10-10-10-10--10-10-10-10--10-10-10\--|
 --8--8--8--8---8--8--8--8---8--8--8\--|
 --------------------------------------|


CHORUS:

|-----------------------------------------------------------|
|-----------------------------------------------------------|
|-----------------------------------------------------------|
|-7/9-9-9-9--7/9-9-9-9--7/9-9--5/7-7-7-7-5------------5-----|
|-5/7-7-7-7--5/7-7-7-7--5/7-7--5/7-7-7-7-5--------5-----7~--|
|-5/7-7-7-7--5/7-7-7-7--5/7-7--3/5-5-5-5-3----5-7---7-------| 2x

(Gtr 1)
|-----------------------------------------------------------|
|-----------------------------------------------------------|
|-----------------------------------------------------------|
|-7/9-9-9-9--7/9-9-9-9--7/9-9--5/7-7-7-7-5------------5-----|
|-5/7-7-7-7--5/7-7-7-7--5/7-7--5/7-7-7-7-5--------5-----7~--|
|-5/7-7-7-7--5/7-7-7-7--5/7-7--3/5-5-5-5-3----5-7---7-------|

(Gtr 2)
|-----------------------------------------------------------|
|-----------------------------------------------------------|
|-----------------------------------------------------------|
|-3h5-5-5-5~-3h5-5-5-5~-3h5-5~-5/7-7-7-7-5------------5-----|
|------------------------------5/7-7-7-7-5--------5-----7~--|
|------------------------------3/5-5-5-5-3----5-7---7-------|

(Gtr 1 & 2)
|-----------------------------------------------------------|
|-----------------------------------------------------------|
|-----------------------------------------------------------|
|-7/9-9-9-9--7/9-9-9-9--7/9-9--5/7-7-7-7-5------------5-----|
|-5/7-7-7-7--5/7-7-7-7--5/7-7--5/7-7-7-7-5--------5-----7~--|
|-5/7-7-7-7--5/7-7-7-7--5/7-7--3/5-5-5-5-3----5-7---7-------|


INTRO - 2x


VERSE - 2x


PRE-CHORUS


CHORUS


OUTRO:

|------------------------------------------------------------------|
|-10----------------------10---------------------------------------|
|--9-----------------------9---------------------------------------|
|--7----------------5------7----------------5-----2----------------|
|---------------5-----7~----------------5-----7~--2----------------|
|-----------5-7---7-----------------5-7---7-------0----------------|

  Visit MetalTabs.com for more metal tablature

bottom separator

Contact Us | Privacy Policy | Disclaimer | Legal Notice
Copyright © 2001-2014 MetalTabs.com. All Rights Reserved.