top separator

Home

Forum

What's New

Submit a Tab

FAQ

Links

Contact Us

Link to Us

MuSpy.com

MetalTabs.com logo

Bands

0-9

A

B

C

D

E

F

G

H

I

J

K

L

M

N

O

P

Q

R

S

T

U

V

W

X

Y

Z

Search

What

Where
 

Cruachan - "Lament For He Wild Geese" Guitar Tab

Plain Text Version
More Cruachan Tabs

Hits: 4874
Rated: 4.67 out of 5 (3 votes)
Updated: 2004-04-30 07:35:10

 

By:

Darkenelf

sendpm.gif

email.gif

Important note
This tab is available online because we obtained explicit permission from Cruachan or their label.


#----------------------------------PLEASE NOTE---------------------------------#
#This file is the author's own work and represents their interpretation of the #
#song. You may only use this file for private study, scholarship, or research. #
#Unless specified otherwise, this is NOT an official tab from the band members.#
#------------------------------------------------------------------------------#

  Visit MetalTabs.com for more metal tablature
  
Band: Cruachan
Album: Pagan
Song: Lament for the Wild Geese
Tabbed by: Martijn Wietsma
Tab Date: 30-04-2004
Email: northerland@yahoo.co.uk

Standard E Tuning

riff A
|-----------------------------------------------------|
|-----------------------------------------------------|
|-------3--5------------------------------------------|
|----5--1--3------------------------------------------|
|-5--3--------5--3------------------------------------|
|-3-----------3--1------------------------------------|
                                                (2x)
riff B (0:27)
|-----------------------------------------------------|
|-3h4p3-1h3---3h4p3-1h3---3h4p3-1h3---3h4p3-1h3-------|
|-----------------------------------------------------|
|-----------------------------------------------------|
|-----------------------------------------------------|
|-----------------------------------------------------|

|-----------------------------------------1-3~-1------|
|-3h4p3-1h3---3h4p3-1h3---3h4p3-1h3---3h4--------3----|
|--------------------------------------------------0--|
|----------------------------------------------------3|
|-----------------------------------------------------|
|-----------------------------------------------------|
                                                (2x)
repeat riff A 2x (under riff B)

riff C (0:53)
|-----------------------------------------------------|
|-----------------------------------------------------|
|-----------------------------------------------------|
|-2---------------------------------------------------|
|-2--3------------------------------------------------|
|-0--1------------------------------------------------|

riff D (0:57)
|-----------------------------------------------------|
|-----------------------------------------------------|
|-----------------------------------------------------|
|-------6-------------------6-------------------------|
|-5--3--6--3---3/-----5--3--6--3-3-3------------------|
|-3--1--6--1---1/-----3--1--6--1-1-1------------------|
                               . . .                (4x)
riff E (flute) (1:23)
|--------------3--------------------------------------|
|-5-5p3h5--5h6---6-5-3--------------------------------|
|----------------------5------------------------------|
|-----------------------------------------------------|
|-----------------------------------------------------|
|-----------------------------------------------------|
                                                (4x)
repeat riff D 4x (1:50)
repeat riff E 4x (2:17)

riff F (2:43)
|-----------------------------------------------------|
|-----------------------------------------------------|
|-----------------------------------------------------|
|-5--7--8--7----5--7----------------------------------|
|-3--5--8--5----3--5--8--8-8--------------------------|
|---------------------6--6-6--------------------------|
                                                (2x)
riff G (2:56)
|-----------------------------------------------------|
|-----------------------------------------------------|
|-----------------------------------------------------|
|-55-5--77-7--88-8--77-7------------------------------|
|-33-3--55-5--88-8--55-5--88-8--88-8------------------|
|-------------------------66-6--66-6------------------|
  ..    ..    ..    ..    ..    ..                (2x)

repeat riff F 2x (3:10)
repeat riff E 4x (3:24)
repeat riff A+B 4x (3:50) till end of song.

  Visit MetalTabs.com for more metal tablature

bottom separator

Contact Us | Privacy Policy | Disclaimer | Legal Notice
Copyright © 2001-2014 MetalTabs.com. All Rights Reserved.