top separator

Home

Forum

What's New

Submit a Tab

FAQ

Links

Contact Us

Link to Us

MuSpy.com

MetalTabs.com logo

Bands

0-9

A

B

C

D

E

F

G

H

I

J

K

L

M

N

O

P

Q

R

S

T

U

V

W

X

Y

Z

Search

What

Where
 

Cruachan - "Erinsong" Guitar Tab

Plain Text Version
More Cruachan Tabs

Hits: 4169
Rated: 5.00 out of 5 (3 votes)
Updated: 2004-04-30 07:35:06

 

By:

Darkenelf

sendpm.gif

email.gif

Important note
This tab is available online because we obtained explicit permission from Cruachan or their label.


#----------------------------------PLEASE NOTE---------------------------------#
#This file is the author's own work and represents their interpretation of the #
#song. You may only use this file for private study, scholarship, or research. #
#Unless specified otherwise, this is NOT an official tab from the band members.#
#------------------------------------------------------------------------------#

  Visit MetalTabs.com for more metal tablature
  
Band: Cruachan
Album: Pagan
Song: Erinsong
Tabbed by: Martijn Wietsma
Tab Date: 30-04-2004
Email: northerland@yahoo.co.uk

Standard E Tuning

(Instrumental song, contains only 1 riff)

drum intro

riff A (0:14)
|----3h5~--7-7p5-5p3--------------------------|
|-5------------------5~-----------------------|
|---------------------------------------------|
|---------------------------------------------|
|---------------------------------------------|
|---------------------------------------------|

|---3h5~--7-7p5-8h10h12~----------------------|
|-5-------------------------------------------|
|---------------------------------------------|
|---------------------------------------------|
|---------------------------------------------|
|---------------------------------------------|

|----10-12~--14-12~-10------------------------|
|-12--------------------12p10~----------------|
|---------------------------------------------|
|---------------------------------------------|
|---------------------------------------------|
|---------------------------------------------|

|-7-5-3h--------------------------------------|
|--------5--7p5-3--7-5~-----------------------|
|---------------------------------------------|
|---------------------------------------------|
|---------------------------------------------|
|---------------------------------------------|

repeat this riff 4x

  Visit MetalTabs.com for more metal tablature

bottom separator

Contact Us | Privacy Policy | Disclaimer | Legal Notice
Copyright © 2001-2014 MetalTabs.com. All Rights Reserved.