top separator

Home

Forum

What's New

Submit a Tab

FAQ

Links

Contact Us

Link to Us

MetalTabs.com logo

Bands

0-9

A

B

C

D

E

F

G

H

I

J

K

L

M

N

O

P

Q

R

S

T

U

V

W

X

Y

Z

Search

What

Where
 

Cruachan - "Summoning Of The Sidhe" Guitar Tab

Plain Text Version
More Cruachan Tabs

Hits: 3894
Rated: 4.67 out of 5 (3 votes)
Updated: 2004-04-30 07:34:59

 

By:

Darkenelf

sendpm.gif

email.gif

Important note
This tab is available online because we obtained explicit permission from Cruachan or their label.


#----------------------------------PLEASE NOTE---------------------------------#
#This file is the author's own work and represents their interpretation of the #
#song. You may only use this file for private study, scholarship, or research. #
#Unless specified otherwise, this is NOT an official tab from the band members.#
#------------------------------------------------------------------------------#

  Visit MetalTabs.com for more metal tablature
  
Band: Cruachan
Album: Pagan
Song: Summoning of the Sidhe
Tabbed by: Martijn Wietsma
Tab Date: 30-04-2004
Email: northerland@yahoo.co.uk

Standard E Tuning

riff A
|-------------------------------------------------------|
|-------------------------------------------------------|
|-77-777------------------------------------------------|
|-55-555--77-777--88-888--1010-8-10---------------------|
|---------55-555--66-666---8-8-6--8---------------------|
|-------------------------------------------------------|
                                                (2x)
riff B (0:12)
|-------------------------------------------------------|
|-------------------------------------------------------|
|-7----------------------7------------------------------|
|-5---7---8---10---------5---7---8-8--10-10-------------|
|-----5---6----8-------------5---6-6---8--8-------------|
|-------------------------------------------------------|
                                                (2x)
riff C (0:34)
|-------------------------------------------------------|
|-------------------------------------------------------|
|-77-77-------------------------------------------------|
|-55-55--77-77--88-88--1010-1010------------------------|
|--------55-55--66-66---8-8--8-8------------------------|
|-------------------------------------------------------|
                                                (2x)
riff D (keyboard part)

repeat riff C 1x (1:03)

riff E (1:08)
|-------------------------------------------------------|
|-------------------------------------------------------|
|-77-77-------------------------------------------------|
|-55-55--77-77--8-10------------------------------------|
|--------55-55--6--8------------------------------------|
|-------------------------------------------------------|
                                                (1x)
riff F (1:13)
|-------------------------------------------------------|
|-------------------------------------------------------|
|-------------------------------------------------------|
|---5--3h----3h5p3h------3h5p3h--(3)--3h5p3h------------|
|-3-------6---------6p5---------6p0----------6p---------|
|-------------------------------------------------------|
                                                (1x)
riff G (1:37)
|-------------------------------------------------------|
|-------------------------------------------------------|
|-------------------------------------------------------|
|---5-5--3h----3h5p3h------3h5p3h--(3)-3h5p3h-----------|
|-3---------6---------6p5---------6p0---------6p--------|
|-------------------------------------------------------|
                                                (8x)
riff H (missing)

repeat riff A 2x (2:41)
repeat riff B 2x (2:52)
repeat riff C 2x (3:12)
repeat riff D (keyboard part) till end of song.

  Visit MetalTabs.com for more metal tablature

bottom separator

Contact Us | Privacy Policy | Disclaimer | Legal Notice
Copyright © 2001-2014 MetalTabs.com. All Rights Reserved.