top separator

Home

Forum

What's New

Submit a Tab

FAQ

Links

Contact Us

Link to Us

MetalTabs.com logo

Bands

0-9

A

B

C

D

E

F

G

H

I

J

K

L

M

N

O

P

Q

R

S

T

U

V

W

X

Y

Z

Search

What

Where
 

Crowbar - "Will That Never Dies" Guitar Tab

Plain Text Version
More Crowbar Tabs

Hits: 5267
Updated: 2004-04-30 05:10:41

 

By:

Father Death

sendpm.gif

email.gif

Important note
This tab is available online because we obtained explicit permission from Crowbar or their label.


#----------------------------------PLEASE NOTE---------------------------------#
#This file is the author's own work and represents their interpretation of the #
#song. You may only use this file for private study, scholarship, or research. #
#Unless specified otherwise, this is NOT an official tab from the band members.#
#------------------------------------------------------------------------------#

  Visit MetalTabs.com for more metal tablature
  
Band:  CROWBAR
Album: Crowbar
Song:  Will That Never Dies

Transcribed by: Chris Humeniuk
Email:  father_death_666@hotmail.com

Tuning:        2.5 steps down

Keys:
 ___ - palm mute
 / \ - slide
  h  - hammer on
  p  - pull off
  x  - mute
  b  - bend
  r  - release bend
 < > - pinch harmonic


INTRO:

|-------------------------------------------|
|-------------------------------------------|
|-------------------------------------------|
|---------------5-10-10\----------9--8--7\--|
|-2-2-2--2-2-2--3--8--8\--2-2--2--9--8--7\--|
|-0-0-0--0-0-0--------8\--0-0--0--7--6--5\--| 4x
  _____  _____            ___  _


VERSE:

|------------------------------|
|------------------------------|
|------------------------------|
|-4---4-4/5--4-4---2-2-7-5--5--|
|-2---2-2/3--2-4---2-2-5-5--5--|
|---2----------2---0-0---3--3--| 8x


CHORUS a:

|---------------------------------------------------
|---------------------------------------------------
|---------------------------------------------------
|--------------------7/9----------------------------
|-------------5~-----7/9----2-2-2--2-2-2--/8--------
|-5h7-6p0-5h7-----7--5/7----0-0-0--0-0-0------7-6~--
                            _____  _____

 ------------------------------------------------|
 ------------------------------------------------|
 -------------------------------7----------------|
 --------------------7/9-------------7\5-5-------|
 -------------5~-----7/9------8------x---x-------|
 -5h7-6p0-5h7-----7--5/7----6-----6--5\3-3--2br~-| 2x


VERSE - 4x


CHORUS b:

|---------------------------------------------------
|---------------------------------------------------
|---------------------------------------------------
|--------------------7/9----------------------------
|-------------5~-----7/9----2-2-2--2-2-2--/8--------
|-5h7-6p0-5h7-----7--5/7----0-0-0--0-0-0------7-6~--
                            _____  _____

 ------------------------------------------------
 ------------------------------------------------
 -------------------------------7----------------
 --------------------7/9-------------7\5-5-------
 -------------5~-----7/9------8------x---x-------
 -5h7-6p0-5h7-----7--5/7----6-----6--5\3-3--2br~-

 ---------------------------------------------------
 ---------------------------------------------------
 ---------------------------------------------------
 --------------------7/9----------------------------
 -------------5~-----7/9----2-2-2--2-2-2--/8--------
 -5h7-6p0-5h7-----7--5/7----0-0-0--0-0-0------7-6~--
                            _____  _____

 --------------------------------------------------|
 --------------------------------------------------|
 -------------------------------7------------------|
 --------------------7/9-------------7\5-5---------|
 -------------5~-----7/9------8------x---x---------|
 -5h7-6p0-5h7-----7--5/7----6-----6--5\3-3-<2>br~--|


INTRO - 4x


VERSE - 4x


CHORUS b


OUTRO:

|-------------------------------------------|     |--------------|
|-------------------------------------------|     |--------------|
|-------------------------------------------|     |--------------|
|---------------5-10-10\----------9--8--7\--|     |--------------|
|-2-2-2--2-2-2--3--8--8\--2-2--2--9--8--7\--|     |-2-2-2--2-2-2-|
|-0-0-0--0-0-0--------8\--0-0--0--7--6--5\--| 6x  |-0-0-0--0-0-0-|
  _____  _____            ___  _                    _____  _____

  Visit MetalTabs.com for more metal tablature

bottom separator

Contact Us | Privacy Policy | Disclaimer | Legal Notice
Copyright © 2001-2014 MetalTabs.com. All Rights Reserved.