top separator

Home

Forum

What's New

Submit a Tab

FAQ

Links

Contact Us

Link to Us

MuSpy.com

MetalTabs.com logo

Bands

0-9

A

B

C

D

E

F

G

H

I

J

K

L

M

N

O

P

Q

R

S

T

U

V

W

X

Y

Z

Search

What

Where
 

Crowbar - "High Rate Extinction" Guitar Tab

Plain Text Version
More Crowbar Tabs

Hits: 5845
Rated: 3.00 out of 5 (2 votes)
Updated: 2004-04-30 05:10:37

 

By:

Father Death

sendpm.gif

email.gif

Important note
This tab is available online because we obtained explicit permission from Crowbar or their label.


#----------------------------------PLEASE NOTE---------------------------------#
#This file is the author's own work and represents their interpretation of the #
#song. You may only use this file for private study, scholarship, or research. #
#Unless specified otherwise, this is NOT an official tab from the band members.#
#------------------------------------------------------------------------------#

  Visit MetalTabs.com for more metal tablature
  
Band:  CROWBAR
Album: Crowbar
Song:  High Rate Extinction

Transcribed by:        Chris Humeniuk
Email:  father_death_666@hotmail.com

Tuning:        2.5 steps down

Keys:
 ___ - palm mute
  b  - bend
 / \ - slide
  h  - hammer on
  r  - release bend


INTRO:

|-------------------------|     |---------|
|-------------------------|     |---------|
|-------------------------|     |---------|
|-------------------------|     |---------|
|-------------------------|     |-5-5-4-4-|
|-0-0-0-3b--0-0-0-3b--3b--| 4x  |-3-3-2-2-|
  _____     _____                 _______

|-------------------------|     |---------|
|-------------------------|     |---------|
|-------------------------|     |---------|
|-------------------------|     |---------|
|-------------------------|     |-5-5-4-4-|
|-0-0-0-3b--0-0-0-3b--3b--| 4x  |-3-3-2-2-|
  _____     _____                 _______


VERSE:

|---------------------------------|
|---------------------------------|
|---------------------------------|
|---------------------------------|
|-2-2-2-2---2-2-2-2---2---5-5-4-4-|
|-0-0-0-3b--0-0-0-3b--3b--3-3-2-2-| 4x
  _____     _____         _______


CHORUS:

|---------------------------------|
|---------------------------------|
|---------------------------------|
|-2------------------------3----3-|
|-2---2-/5h6-5~\-----------3----3-|
|-0---0----------/8-7\--00-1-00-1-| 4x
                        __   __


VERSE - 8x


CHORUS - 4x


INTERLUDE:

|-------------------------------------------|
|-------------------------------------------|
|-------------------------------------------|
|-2--2--7--------------2--2--7------------3-|
|-2--2--5------2-4-5-4-2--2--5------------3-|
|-0--0--5--7\--0-2-3-2-0--0--5--7\--3br\2-1-| 4x
               _______


FILL:

|-------------------------|     |---------|
|-------------------------|     |---------|
|-------------------------|     |---------|
|-------------------------|     |---------|
|-2-2-2-2---2-2-2-2---2---|     |-5-5-4-4-|
|-0-0-0-3b--0-0-0-3b--3b--| 2x  |-3-3-2-2-|
  _____     _____                 _______


VERSE - 4x


OUTRO:

|---------------------------------|     |---|
|---------------------------------|     |---|
|---------------------------------|     |---|
|-2------------------------3----3-|     |-2-|
|-2---2-/5h6-5~\-----------3----3-|     |-2-|
|-0---0----------/8-7\--00-1-00-1-| 4x  |-0-|
                        __   __

  Visit MetalTabs.com for more metal tablature

bottom separator

Contact Us | Privacy Policy | Disclaimer | Legal Notice
Copyright © 2001-2014 MetalTabs.com. All Rights Reserved.