top separator

Home

Forum

What's New

Submit a Tab

FAQ

Links

Contact Us

Link to Us

MuSpy.com

MetalTabs.com logo

Bands

0-9

A

B

C

D

E

F

G

H

I

J

K

L

M

N

O

P

Q

R

S

T

U

V

W

X

Y

Z

Search

What

Where
 

Mithotyn - "Embraced by Frost" Guitar Tab

Plain Text Version
More Mithotyn Tabs

Hits: 2345
Rated: 4.33 out of 5 (3 votes)
Updated: 2004-04-30 05:07:09

 

By:

timedragon

sendpm.gif

email.gif

Important note
This tab is available online because we obtained explicit permission from Mithotyn or their label.


#----------------------------------PLEASE NOTE---------------------------------#
#This file is the author's own work and represents their interpretation of the #
#song. You may only use this file for private study, scholarship, or research. #
#Unless specified otherwise, this is NOT an official tab from the band members.#
#------------------------------------------------------------------------------#

  Visit MetalTabs.com for more metal tablature
  
Band:  Mithotyn
Album: In the sign of the ravens
Song:  Embraced by Frost
Label: Hammerheart records

Transcribed By: Trey Dixon
Email:          Moonlitdungeon@aol.com


.  - palm mute           /  - slide up to
\  - slide down to       ~  - vibrato
h  - hammer on           b  - Bend
p  - pull off            Suffixes for bend
t  - tap                 f  - full bend    h - half bend
ph - pinched harmonic    q  - quarter bend t - tap bend
*  - see comment         ^  - Hold bend    r release bend
x  - Stuccatto           ~  - vibrato bend
,  - slight palm mute    () - ghost note, sustained note
"  - tremolo note        <> - Trill

Tune both guitars down 1 full step (DGCFAD)

I have all the riffs in order until they repeat, so
you will just repeat when needed.  For all the
tremolo riffs I only have the note typed ONE time,
so you will simply hear on the song for how long to
pluck the notes.  Same for MOST of the chords,you
do the timing, its simple.  I left some helpful notes
to explain some parts of the song...

Guitar 1...
|----------------------------------------------------|
|-------------------------------------------------12-|
|--------11-----/9-7-6-/9-7-9-11h12p11-9-------11----|
|9-11-12----12\--------------------------12-11-------|
|----------------------------------------------------|
|----------------------------------------------------|

Guitar 1 (continued) For mutes at the end, the 1st one
shown is played thefirst time, the second is played the
2nd+3rd time, then play 1st one again.
|----------------------------------------------------|-------------|
|--------------------------------------------(1st)---|---(2nd)-----|
|-11-12/14-12-11-12p11-9-11p9----9-------------------|---------11~-|
|-----------------------------12---h12-11-11-12-11-9-|-9-11-12-----|
|----------------------------------------------------|-------------|
|----------------------------------------------------|-------------|
                                           .  .  . .   .  .  .
Guitar 2
|------------------------------------------------------|
|------------------------------------------------------|
|-4--------7-7-7-7---4---------------------------------|
|-4--5--7--7-7-7-7---4--5--7--5--5--7--9---------------|
|-2--5--7--5-5-5-5---2--5--7--5--5--7--9---------------|
|----3--5---------------3--5--3--3--5--7---------------|
             . .                 .  .  .

Guitar 1 and 2 (Mostly all slides between chords here) Add them in.
|--------------------------------------------------------------|
|--------------------------------------------------------------|
|---------------------------------------------------------6----|
|-4-4--6--7--7-9--11--12--11--9-7-6--6--7--9--7--6--3--6--6----|
|-4-4--6--7--7-9--11--12--11--9-7-6--6--7--9--7--6--3--6--4----|
|-2-2--4--5--5-7--9---10--9---7-5-4--4—-5--7--5--4--1--4-------|
                                ^P. mute this 3x before the pow.4
Guitar 1
|-------------------------------------------------------------------|
|-----7-7-----7-7----------10--------------------12-----------------|
|-7-6-----7-6------9-11-12----12\9-12-9-11-12-11--------------------|
|------------------------------------------------------9-9-9-9-9-9-9|
|--------------------------------------------------12--9-9-9-9-9-9-9|
|------------------------------------------------------7-7-7-7-7-7-7|
                                                         . .   . .
Guitar 2
|-------------------------------------------------------------------|
|--------------------------10--------------------12-----------------|
|-7--6--11-11------9-11-12----12\9-12-9-11-12-11--------------------|
|-5--4--9--9-------------------------------------------9-9-9-9-9-9-9|
|--------------------------------------------------12—-9-9-9-9-9-9-9|
|------------------------------------------------------7-7-7-7-7-7-7|
                                                         . .   . .
Guitar 1
|------------------------------------------|
|------------------------------------------|
|-11-9----9-----------9--------------------|
|------12---9-9-11-12------11--------------|
|-----------------------12-----------------|
|------------------------------------------|

Guitar 2
|------------------------------------------|
|------------------------------------------|
|-11-9--7--9-----6/7--7--9-----------------|
|-9—-7--5--7--5—-6/7--7--9--7--------------|
|-------------5—-4/5--5--7--7--------------|
|-------------7-------------5--------------|

Guitar 1  “solo”
|---------------------------------------------------|
|---------------------------------------------------|
|-----6-7-9-9/11-11-9-8-------------9------/12------|
|-9-9--------------------11-9-11-12---12-9------12\-|
|---------------------------------------------------|
|---------------------------------------------------|

Guitar 2 (during “solo”)
|---------------------------------------------------|
|---------------------------------------------------|
|-4--4--6--7--6--6--9--7--6--4--6--7--7--6--4--6----|
|-4--4--6--7--4--4--9--7--6--4--6--7--7--6--4--4----|
|-2--2--4--5--------7--5--4--2--4--5--5--4--2-------|
|---------------------------------------------------|

Guitar 1  (only)
|---------------------------------------------------------------|
|---------------------------------------------------------------|
|---------------------------------------------------------------|
|---------------------------------------------------------------|
|-9-0-0-7-0-0-9--7-------------------------------7------------7-|
|------------------10-9--10-0-0-9-0-0-10--7-9-10---0-0-10-0-0---|
    . .   . .               . .   . .              . .    . .

Guitar 1 (only) CONTINUED
|--------------------------------------------|
|--------------------------------------------|
|--------------------------------------------|
|--------------------------------------------|
|-10-9-7-9—0-0-7----9-7-10-------------------|
|--------------------------9~~---------------|
           . .

Guitar 2             ^^^^(joins in here)
|--------------------------------------------|
|--------------------------------------------|
|-11-9--7--6---------------------------------|
|-11-9--7--6---------------------------------|
|-9--7--5--4---------------------------------|
|--------------------------------------------|

As Guitar 1 repeats the riff, Guitar 2 plays...
|-  (3x)  -  (x3)  -  (x3)  ---  (x3)  --------------|
|----------------------------------------------------|
|-6-6-6-6--7-7-7-7--9-9-9-9--11-11-11-11--11-9--7--6-|
|-4-4-4-4--7-7-7-7--9-9-9-9--11-11-11-11--11-9--7--6-|
|----------5-5-5-5--7-7-7-7--9--9--9--9---9—-7-—5—-4-|
|----------------------------------------------------|
    . .      . .      . .       .  .

Guitar 1
|-------------------------------------------------------------------|
|-------------------------------------------------------------------|
|-------------------------------------------------------------------|
|----------------------------------------9-11-12-12-0-0-11-14-0-0-12|
|-9-0-0-7-0-0-9--7--------------------------------------------------|
|------------------10-9--10-0-0-9-0-0-10----------------------------|
    . .   . .               . .   . .                . .       . .

Guitar 1 CONTINUED
|--------------------------------------|
|--------------------------------------|
|--------------------------------------|
|-16-0-0-14--17-0-0-16-----------------|
|--------------------------------------|
|--------------------------------------|
     . .        . .

Guitar 2
|-  (x3)  -  (x3)  -------------------------------------------|
|-------------------------------------------------------------|
|-6-6-6-6--7-7-7-7--7-7-7-7--9-9-9-9--11-11-11-11--12-12-12-12|
|-4-4-4-4--7-7-7-7--5-5-5-5--7-7-7-7--9--9--9--9---10-10-10-10|
|----------5-5-5-5---------------------------------------------|
|--------------------------------------------------------------|
    . .      . .      . .      . .       .  .         .  .

Guitar 1+2
|-------------------------|
|-------------------------|
|-7--9--11----------------|
|-5--7--9-----------------|
|-------------------------|
|-------------------------|

Guitar 1 (“solo 2”)(Guitar 2 plays riff from earlier)...hear song
|----------------------------------------------------------------|
|-------------15-14-12----12-14-12--------  (x4)  -  (x2)  ------|
|-11h12p11/16----------14----------14-11--12-11-9--11-9------11~~|
|-------------------------------------------------------12-------|
|----------------------------------------------------------------|
|----------------------------------------------------------------|

Guitar 1  (“solo 2” CONTINUED)   Might be some wrong notes here...
|-----------------------------15\\\------------------------------|
|-----/15--------------------------------------------------------|
|-11----------------14-16-17-------------------------------------|
|----------14-16-17----------------------------------------------|
|----------------------------------------------------------------|
|----------------------------------------------------------------|

That’s all of the riffs. Now repeat as the song does to finish it!

  Visit MetalTabs.com for more metal tablature

bottom separator

Contact Us | Privacy Policy | Disclaimer | Legal Notice
Copyright © 2001-2014 MetalTabs.com. All Rights Reserved.