top separator

Home

Forum

What's New

Submit a Tab

FAQ

Links

Contact Us

Link to Us

MetalTabs.com logo

Bands

0-9

A

B

C

D

E

F

G

H

I

J

K

L

M

N

O

P

Q

R

S

T

U

V

W

X

Y

Z

Search

What

Where
 

Unleashed - "Dead Forever" Guitar Tab

Plain Text Version
More Unleashed Tabs

Hits: 3017
Updated: 2004-04-28 05:21:37

 

By:

Daniil

sendpm.gif

email.gif

Important note
This tab is available online because we obtained explicit permission from Unleashed or their label.


#----------------------------------PLEASE NOTE---------------------------------#
#This file is the author's own work and represents their interpretation of the #
#song. You may only use this file for private study, scholarship, or research. #
#Unless specified otherwise, this is NOT an official tab from the band members.#
#------------------------------------------------------------------------------#

  Visit MetalTabs.com for more metal tablature
  
UNLEASHED-Dead Forever
Where No Life Dwells-1991
Transcribed by Daniil Laletin
e-mail: dlaletin@mail.ru
version 1.0 October 2003

All corrections are welcome.


Riff 1
|---------------------|
|---------------------|
|---------------------|
|-------------2-------|
|-3-3-3-2---1-------4-|
|-1-1-1-0-------0-3---|


Riff 2a
|----------------------------------|
|----------------------------------|
|----------------------------------|
|-----2211------------2211---------|
|---11------4433----11------443333-|
|-00------33----1100------33-------|


Riff 2b
|----------------------------------|
|----------------------------------|
|----------------------------------|
|-----2211------------2211---------|gtr 1
|---11------4433----11------443333-|
|-00------33----1100------33-------|
|
|----------------------------------|
|-----5544------------5544---------|
|---33------6655----33------665555-|
|-22------55----3322------55-------|gtr 2
|----------------------------------|
|----------------------------------|


Riff 3
|------------------------------------------|
|------------------------------------------|
|------------------------------------------|
|------------------------------------------|
|-----------3344441111----------3344444444-|
|-0000000033----------0000000033-----------|



Riff 4                                  Fill 1
|----------------------------------|   |-------------|
|----------------------------------|   |-------------|
|----------------------------------|   |-------------|
|---2211--112211----2211--1122-----|   |-8p7p5-7p5p3-|
|-------22------22------22----1111-|   |-------------|
|-00--------------00---------------|   |-------------|


Riff 5
|----------------------------------------------|
|----------------------------------------------|
|----------------------------------------------|
|----------------------------------------------|
|-2--2-2-5/6-3------3-4---2--2-2-5/6-3---4-----|
|-0--0-0-3/4-1--0-1-------0--0-0-3/4-1-0---0-1-|



Riff 6
|----------------------------------|
|----------------------------------|
|----------------------------------|
|----------------------------------|
|----------------------------------|
|-00336655336655330033665533665555-|


Riff 7a
|------------------|
|------------------|
|------------------|
|-2"---8p7p5-7p5p3-|
|------------------|
|------------------|


Riff 7b
|---------------------|
|-5"---11p10p8-10p8p6-|
|---------------------|
|---------------------|gtr 1
|---------------------|
|---------------------|
|
|------------------|
|------------------|
|------------------|
|-2"---8p7p5-7p5p3-|gtr 2
|------------------|
|------------------|

  Visit MetalTabs.com for more metal tablature

bottom separator

Contact Us | Privacy Policy | Disclaimer | Legal Notice
Copyright © 2001-2014 MetalTabs.com. All Rights Reserved.