top separator

Home

Forum

What's New

Submit a Tab

FAQ

Links

Contact Us

Link to Us

MuSpy.com

MetalTabs.com logo

Bands

0-9

A

B

C

D

E

F

G

H

I

J

K

L

M

N

O

P

Q

R

S

T

U

V

W

X

Y

Z

Search

What

Where
 

Illdisposed - "Fear Bill Gates" Guitar Tab

Plain Text Version
More Illdisposed Tabs

Hits: 4038
Updated: 2004-04-28 05:21:11

 

By:

Daniil

sendpm.gif

email.gif

Important note
This tab is available online because we obtained explicit permission from Illdisposed or their label.


#----------------------------------PLEASE NOTE---------------------------------#
#This file is the author's own work and represents their interpretation of the #
#song. You may only use this file for private study, scholarship, or research. #
#Unless specified otherwise, this is NOT an official tab from the band members.#
#------------------------------------------------------------------------------#

  Visit MetalTabs.com for more metal tablature
  
ILLDISPOSED-Fear Bill Gates
Kokaiinum-2001
Transcribed by Daniil Laletin
e-mail: dlaletin@mail.ru
version 1.0 December 2003

All corrections are welcome.

 " - tremolo
 / - slide down
 \ - slide up
 . - palm mute
 ~ - long sound
 x - rest
 p - pull off
 h - hammer on


Riff 1
|----------------------------------------------------------------------|
|----------------------------------------------------------------------|
|----------------------------------------------------------------------|
|----------------------------------------------------------------------|
|-7------7h9h10------9h10h12------10-7------7h9h10------9h10h12------9-|
|---0000--------0000---------8888------0000--------0000---------8888---|



Riff 2
|------------------------------------------------------------------|
|------------------------------------------------------------------|
|------------------------------------------------------------------|
|-9-----9-----9--------------------------------------------7---7---|
|-----------------7-----7-----7---10-----10-----10---9-------------|
|---000---000---0---000---000---0----888----888----8---777---7---7-|



Fill 1
|----------------------------------------------------------------------|
|----------------------------------------------------------------------|
|----------------------------------------------------------------------|
|----------------------------------------------------------------------|
|-7------7h9h10------9h10h12------10-7------7h9h10------9h10h12------9-|
|---0000--------0000---------8888------0000--------0000---------8888---|
|
|----------------------------------------------------------------------|
|----------------------------------------------------------------------|
|----------------------------------------------------------------------|
|----------------------------------------------------------------------|
|--------------------------------------------------------------------9-|
|---------------------------------------------------------------0000-7-|



Riff 3a
|-----------------------------------------------------|
|-----------------------------------------------------|
|-----------------------------------------------------|
|-----------------------------------------------------|
|-7-----7-9-10-------9-10-12-------6-7-9-------9-10-9-|
|---000--------8-888---------5-555-------7-777--------|



Riff 3b
|-----------------------------------------------------|
|-----------------------------------------------------|
|-----------------------------------------------------|
|-----------------------------------------------------|
|-7-----7-9-10-------9-10-12-------6-7-9-------9-10-9-|
|---000--------8-888---------5-555-------7-777--------|
|
|-----------------------------------------------------|
|-----------------------------------------------------|
|-----------------------------------------------------|
|-9---------------------------------------------------|
|-7------------10------------7-----------9------------|
|---------------8------------5-----------7------------|



Solo riff 1
|------------------------|
|------------------------|
|------------------------|
|-11---------------------|
|--9-----12-----9-----11-|
|--------10-----7------9-|



Riff 4
|-------------------------------------|
|-------------------------------------|
|-------------------------------------|
|-9-----------------5--------4--------|
|-7-777777-7--------3-333333-2-222222-|
|---......-5-555555---......---......-|
             ......


Riff 5a
|------------------------------------------------------------|
|------------------------------------------------------------|
|------------------------------------------------------------|
|-------5---7-----------7h9p7p5p4------5---7---------5h7p5p4-|
|-2-------------2---0-------------3333---3---3-2-023---------|
|-0-000---0---0---0---0--------------------------------------|
|
|------------------------------------------------------------|
|------------------------------------------------------------|
|-4----------------------------------------------------------|
|-2-------------4---2----------------------------------------|
|---------------2---0----------------------------------------|
|------------------------------------------------------------|


Riff 5b
|------------------------------------------------------------|
|------------------------------------------------------------|
|------------------------------------------------------------|
|-------5---7-----------7h9p7p5p4------5---7---------5h7p5p4-|
|-2-------------2---0-------------3333---3---3-2-023---------|
|-0-000---0---0---0---0-----------....---.---.-.-------------|
    ...   .   .   .   .


Clean riff under Riff 5b
|-------------------------------------------------------------|
|-------------------------------------------------------------|
|---4---2--4---4---5---4--5---5-------2--------------2--------|
|-2---2------2---2---2------2-----5--------5-----4--------4---|
|-------------------------------3---3----3---3-2---2----2---2-|
|-------------------------------------------------------------|


Clean solo  (not full)
|-----------------------------------------------|
|-5-7-8-8--5-7-8----5-7-8-10--8----------10-----|
|----------------5--------------9------8----9-8-|
|---------------------------------9-10----------|
|-----------------------------------------------|
|-----------------------------------------------|

|-7-----------7-8-7h8p7-5h7p5-7-------------------|
|---8-5---5-8-------------------------------------|
|-------4-----------------------can't-------------|
|-------------------------------------do the------|
|--------------------------------------------rest-|
|-------------------------------------------------|

|--------------------------------------------|
|-?????????????????????----------------------|
|-?????????????????????-it's too-------------|
|-?????????????????????----------hard for me-|
|--------------------------------------------|
|--------------------------------------------|

After that comes distortion guitar with wah-wah
|----------------------------------------|
|----------------------------------------|
|----------------------------------------|
|----------------------------------------|
|-7~--9-10-7~--9-10-7~--9-10-12~-10-9-6~-|
|----------------------------------------|

|--------------------------------------------|
|--------------------------------------------|
|--------------------------------------------|
|--------------------------------9-10-9--9~~-|
|-7~--9-10-7~--9-10-7~--9-10-12~-------------|
|--------------------------------------------|

|--------------------------------------------------------|
|--------------------------------------------------------|
|--------------------------------------------------------|
|--------------------------------------------------------|
|-9-10-7~--9-10-7~--9-10-12~-10-9-6-7~-9-10-7~--9-10-7~--|
|--------------------------------------------------------|

|------------------------------------------------------------|
|------------------------------------------------------------|
|------------------9~--11-12-9~--11-12-9~--11-12-14~-12-11-8-|
|----------9-10-9~-------------------------------------------|
|-9-10-12~---------------------------------------------------|
|------------------------------------------------------------|

|-------------------------------------------------|
|-----------------------------------12-13-12-12~--|
|-9~--11-12-9~--11-12-9~--11-12-14~---------------|
|-------------------------------------------------|
|-------------------------------------------------|
|-------------------------------------------------|

|-------------------------------------------------------------|
|-------------------------------------------------------------|
|-11-12-9~--11-12-9-------------------------------------------|
|--------------------12-10-9-10-9-----------------------------|
|---------------------------------12-10-9~--10-7~--9-5~--7-2~-|
|-------------------------------------------------------------|

|-------------------------------------------------------|
|-------------------------------------------------------|
|-????????????????????---fast tapping ------------------|
|-?????????????????????---------------i think,----------|
|-??????????????????????-----------------------can't do-|
|-------------------------------------------------------|

  Visit MetalTabs.com for more metal tablature

bottom separator

Contact Us | Privacy Policy | Disclaimer | Legal Notice
Copyright © 2001-2014 MetalTabs.com. All Rights Reserved.