top separator

Home

Forum

What's New

Submit a Tab

FAQ

Links

Contact Us

Link to Us

MuSpy.com

MetalTabs.com logo

Bands

0-9

A

B

C

D

E

F

G

H

I

J

K

L

M

N

O

P

Q

R

S

T

U

V

W

X

Y

Z

Search

What

Where
 

Fleshcrawl - "The Forthcoming End" Guitar Tab

Plain Text Version
More Fleshcrawl Tabs

Hits: 2891
Rated: 5.00 out of 5 (1 vote)
Updated: 2004-04-28 05:20:50

 

By:

Daniil

sendpm.gif

email.gif

Important note
This tab is available online because we obtained explicit permission from Fleshcrawl or their label.


#----------------------------------PLEASE NOTE---------------------------------#
#This file is the author's own work and represents their interpretation of the #
#song. You may only use this file for private study, scholarship, or research. #
#Unless specified otherwise, this is NOT an official tab from the band members.#
#------------------------------------------------------------------------------#

  Visit MetalTabs.com for more metal tablature
  
FLESHCRAWL-The Forthcoming End
Soulskinner-2001
Transcribed by Daniil Laletin
e-mail: dlaletin@mail.ru
version 1.0 January 2004

All corrections are welcome.

 " - tremolo
 / - slide down
 \ - slide up
 . - palm mute
 ~ - long sound
 x - rest
 p - pull off
 h - hammer on



Riff 1a
|-----------------------------------------|
|-----------------------------------------|
|-----------------------------------------|
|-------------------------------------3-4-|
|-2-------------------2---------------1-2-|
|-0-------------------0-------------------|
|
|-----------------------------------------|
|-----------------------------------------|
|------4~-4-5-4-2-4-5------4~-4-5-4-2-----|
|----2-------------------2------------3-4-|
|-2-------------------2---------------1-2-|
|-0-------------------0-------------------|



Riff 1b
|-----------------------------------------|
|-----------------------------------------|
|------4~-4-5-4-2-4-5------4~-4-5-4-2-----|
|----2-------------------2------------3-4-|
|-2-------------------2---------------1-2-|
|-0-------------------0-------------------|



Riff 2
|---------------------------------|
|---------------------------------|
|---------------------------------|
|---------------------------------|
|-2-5-4--4-7-5-2-5-4--4-7-5-4-7-8-|
|-0-3-2--2-5-3-0-3-2--2-5-3-2-5-6-|



Riff 3a
|----------------------------------------|
|----------------------------------------|
|----------------------------------------|
|-2--4-5-4-2-4----2--4-5-4-2-----4-----5-|
|-2--2-3-2-0-2----2--2-3-2-0-5-5-2-3-3-3-|
|-0--2-3-2---2----0--2-3-2---3-3---1-1---|


Riff 3b
|----------------------------------------|
|----------------------------------------|
|----4-5-4-2-4-------4-5-4-2-----2-----5-|
|-2---------------2----------5-5---3-3---|
|----------------------------------------|
|----------------------------------------|
|
|----------------------------------------|
|----------------------------------------|
|----------------------------------------|
|-2--4-5-4-2-4----2--4-5-4-2-----4-----5-|
|-2--2-3-2-0-2----2--2-3-2-0-5-5-2-3-3-3-|
|-0--2-3-2---2----0--2-3-2---3-3---1-1---|



Riff 4
|--------------------------------------------------|
|--------------------------------------------------|
|--------------------------------------------------|
|-------------4-----4----------------2-----4-----5-|
|-2-----------2-----2-------2--------0-5-5-2-3-3-3-|
|-0-0-000-0-0---0-0---0-0-0-0-0-0000---3-3---1-1---|


Riff 5
|----------------------------------------|
|----------------------------------------|
|--------4"-5"-----4"-------4"-----------|
|-2"--2"--------5"-----2"2"----5"--4"-5"-|
|----------------------------------------|
|----------------------------------------|

|--------------------------------------|
|--------------------------------------|
|--------4"-5"-----4"------------------|
|-2"--2"--------5"----5"----4"---------|
|------------------------3"--------3"--|
|------------------------------3"------|



Solo riff
|----------------------------------------|
|----------------------------------------|
|----------------------------------------|
|----------------------------------------|
|-2---5-2---5/7-5/7--2---5-2---5-5/7-7/8-|
|-0---3-0---3/5-3/5--0---3-0---3-3/5-5/6-|



Riff 6a
|----------------------------------------|
|------------------------5"--------------|
|--------4"-5"-----4"-------4"-----------|
|-2"--2"--------5"-----2"------5"--4"-5"-|
|----------------------------------------|
|----------------------------------------|

|--------------------------------------|
|--------------------------------------|
|--------4"-5"-----4"------------------|
|-2"--2"--------5"----5"----4"---------|
|------------------------3"--------3"--|
|------------------------------3"------|


Riff 6b
|----------------------------------------|
|------------------------5"--------------|
|--------4"-5"-----4"-------4"-----------|
|-2"--2"--------5"-----2"------5"--4"-5"-|
|----------------------------------------|
|----------------------------------------|

|-----------------------------------------|
|-----------------------------------------|
|--------4"-5"-----4"---------------------|
|-2"--2"--------5"----5"----4"-----5------|
|------------------------3"----5---3---2--|
|------------------------------3-------0--|

  Visit MetalTabs.com for more metal tablature

bottom separator

Contact Us | Privacy Policy | Disclaimer | Legal Notice
Copyright © 2001-2014 MetalTabs.com. All Rights Reserved.