top separator

Home

Forum

What's New

Submit a Tab

FAQ

Links

Contact Us

Link to Us

MuSpy.com

MetalTabs.com logo

Bands

0-9

A

B

C

D

E

F

G

H

I

J

K

L

M

N

O

P

Q

R

S

T

U

V

W

X

Y

Z

Search

What

Where
 

Otyg - "Trollslottet" Guitar Tab

Plain Text Version
More Otyg Tabs

Hits: 6404
Rated: 4.00 out of 5 (1 vote)
Updated: 2004-04-27 08:11:37

 

By:

Darkenelf

sendpm.gif

email.gif

Important note
This tab is available online because we obtained explicit permission from Otyg or their label.


#----------------------------------PLEASE NOTE---------------------------------#
#This file is the author's own work and represents their interpretation of the #
#song. You may only use this file for private study, scholarship, or research. #
#Unless specified otherwise, this is NOT an official tab from the band members.#
#------------------------------------------------------------------------------#

  Visit MetalTabs.com for more metal tablature
  
Band: Otyg
Album: Sagovindars Boning
Song: Trollslottet
Tabbed by: Martijn Wietsma
Tab Date: 27-04-2004
Email: northerland@yahoo.co.uk

Standard E Tuning

h = hammer
p = pick
/ = forward slide
\ = backward slide
. = palm mute

riff A
|-------------5------------------------------------|
|---6-5-----3---3---6p5p3h---3-----6-5-------------|
|-3-----5------------------5-----3-----5-----------|
|--------------------------------------------------|
|--------------------------------------------------|
|--------------------------------------------------|

riff B (0:07)
|--------------------------------------------------|
|--------------------------------------------------|
|--------------------------------------------------|
|-7--7-5-7---5-7---9-5-7---7-5-7-------------------|
|-5--5-3-5---3-5---7-3-5---5-3-5-------------------|
|--------------------------------------------------|
                                        (2x)

riff C (lead under riff B) is missing!! (very hard to hear)

riff D (0:24)
|--------------------------------------------------|
|--------------------------------------------------|
|--------------------------------------------------|
|-5h7-7--5h----5h-------------5h7-7----------------|
|-----------8-----8p7--5-7h8-----------------------|
|--------------------------------------------------|

|--------------------------------------------------|
|--------------------------------------------------|
|--------------------------------------------------|
|-5h7-7--5h----5h----------------------------------|
|-----------8-----8p7--5-8p7h8p7-5-5---------------|
|--------------------------------------------------|
                                        (4x)
riff E (1:01)
|-------------5------------------------------------|
|---6-5-----3---3---6p5p3h---3---------------------|
|-3-----5------------------5-----------------------|
|--------------------------------------------------|
|--------------------------------------------------|
|--------------------------------------------------|

|-------------5-----5---5--------------------------|
|---6-5-----3---3-----8----------------------------|
|-3-----5------------------------------------------|
|--------------------------------------------------|
|--------------------------------------------------|
|--------------------------------------------------|

|-------------5------------------------------------|
|---6-5-----3---3---6p5p3h---3------6-5------------|
|-3-----5------------------5------3-----5----------|
|--------------------------------------------------|
|--------------------------------------------------|
|--------------------------------------------------|

repeat riff B+C 2x (1:18)
repeat riff D 4x (1:35)
repeat riff E 1x (2:16)

riff F (2:27)
|--------------------------------------------------|
|--------------------------------------------------|
|---2-2-----------------------2-2------------------|
|-5-----3--5p3-2----2h3-2h3-5----------------------|
|----------------5---------------------------------|
|--------------------------------------------------|

|--------------------------------------------------|
|--------------------------------------------------|
|---2-2--------------------------------------------|
|-5-----3--5p3-2----2h3-2h3p2----------------------|
|----------------5------------5-5------------------|
|--------------------------------------------------|
                                        (4x)
repeat riff E 4x (3:03)

riff G (3:39)
|--------------------------------------------------|
|--------------------------------------------------|
|----------------4---------------------------------|
|----------------2---5--7--------------------------|
|-5h6p5p3h5-5--------3--5--------------------------|
|--------------------------------------------------|
                                        (1x)

(end of song)

  Visit MetalTabs.com for more metal tablature

bottom separator

Contact Us | Privacy Policy | Disclaimer | Legal Notice
Copyright © 2001-2014 MetalTabs.com. All Rights Reserved.