top separator

Home

Forum

What's New

Submit a Tab

FAQ

Links

Contact Us

Link to Us

MetalTabs.com logo

Bands

0-9

A

B

C

D

E

F

G

H

I

J

K

L

M

N

O

P

Q

R

S

T

U

V

W

X

Y

Z

Search

What

Where
 

Illdisposed - "Instrumentally Illdisposed" Guitar Tab

Plain Text Version
More Illdisposed Tabs

Hits: 4270
Rated: 3.50 out of 5 (2 votes)
Updated: 2004-04-26 09:04:22

 

By:

Daniil

sendpm.gif

email.gif

Important note
This tab is available online because we obtained explicit permission from Illdisposed or their label.


#----------------------------------PLEASE NOTE---------------------------------#
#This file is the author's own work and represents their interpretation of the #
#song. You may only use this file for private study, scholarship, or research. #
#Unless specified otherwise, this is NOT an official tab from the band members.#
#------------------------------------------------------------------------------#

  Visit MetalTabs.com for more metal tablature
  
ILLDISPOSED-Instrumentally Illdisposed
There's Something Rotten… In The State Of Denmark-1997
Transcribed by Daniil Laletin
e-mail: dlaletin@mail.ru
version 1.0 December 2003

All corrections are welcome.

 " - tremolo
 / - slide down
 \ - slide up
 . - palm mute
 ~ - long sound
 x - rest
 p - pull off
 h - hammer on


Riff 1
|-------------------------------------------|
|-------------------------------------------|
|-------------------------------------------|
|-------------------------------------------|
|----5---5-------7---7-----4---4----4---4---|
|-3----3---3-3/5---5---5\2---2---22---2---2-|
|
|-------------------------------------------|
|-------------------------------------------|
|-------------------------------------------|
|-------------------------------------------|
|----5---5-------7---7-----4---4----4---4---|
|-3----3---3-3/5---5---5\2---2---22---2---2-|


Riff 2
|-------------------------------------------|
|-------------------------------------------|
|-------------------------------------------|
|-------------------------------------------|
|----5---5-----7---7-----10---9----10---9---|
|-3----3---3/5---5---5/7----7---77----7---7-|
|
|-------------------------------------------|
|-------------------------------------------|
|-------------------------------------------|
|-------------------------------------------|
|----5---5-----7---7-----10---9----10---9---|
|-3----3---3/5---5---5/7----7---77----7---7-|
|
|-------------------------------------------|
|-------------------------------------------|
|-------------------------------------------|
|-------------------------------------------|
|-5----------7---------9--------------------|
|-3----------5---------7--------------------|



Riff 3
|----------------------------------------------|
|----------------------------------------------|
|----------------------------------------------|
|----------------------------------------------|
|---9-9-7-5-----7-7-5-5---5-5-4-4---5----5-4-4-|
|-7---------7-5---------3---------2---22-------|
|   .           .         .       .   ..
|----------------------------------------------|
|----------------------------------------------|
|----------------------------------------------|
|----------------------------------------------|
|---9-9-7-5-----7-7-5-5---5-5-4-4---5----5-4-4-|
|-7---------7-5---------3---------2---22-------|
    .           .         .       .   ..



Riff 4
|----------------------------------------------------------|
|----------------------------------------------------------|
|----------------------------------------------------------|
|----------------------------------------------------------|
|----------------------------------------------------------|
|----------------------------------------------------------|
|
|----------------------------------------------------------|
|----------------------------------------------------------|
|----------------------------------------------------------|
|----------------------------------------------------------|
|----------------------------------------------------------|
|-3-33-5-55-7-7-7h8p7-10-10-10-3-33-5-55-7-77h8p7-10-10-10-|

|----------------------------------------------------------|
|----------------------------------------------------------|
|----------------------------------------------------------|
|----------------------------------------------------------|
|--------------------------------------------Volume--------|
|---------------------------------------------Swell--------|
|
|----------------------------------------------------------|
|----------------------------------------------------------|
|----------------------------------------------------------|
|----------------------------------------------------------|
|----------------------------------------------------------|
|-3-33-5-55-7-7-7h8p7-10-10-10-3-33-5-55-7-77h8p7-10-10-10-|



Riff 5a
|-------------------------------------------|
|-------------------------------------------|
|-------------------------------------------|
|----9-11-12~---9-11-12~---7-9-11~---5-7-9~-|
|--9----------9----------7---------5--------|
|-------------------------------------------|
|
|-------------------------------------------|
|-------------------------------------------|
|-------------------------------------------|
|-------------------------------------------|
|-------------------------------------------|
|-------------------------------------------|
|
|-------------------------------------------|
|-------------------------------------------|
|-------------------------------------------|
|-------------------------------------------|
|-9----------9----------7---------5---------|
|-7----------7----------5---------3---------|



Riff 5b
|----------------------------------------------|
|----------------------------------------------|
|----------------------------------------------|
|----9-11-12~---9-11-12~---7-9-11~---5-7-9~----|
|--9----------9----------7---------5-----------|
|----------------------------------------------|
|
|----------------------------------------------|
|----------------------------------------------|
|----7--9-11~---7--9-11~-9~--------7~----7h8p7-|
|--9----------9--------------------------------|
|----------------------------------------------|
|----------------------------------------------|
|
|----------------------------------------------|
|----------------------------------------------|
|----------------------------------------------|
|----------------------------------------------|
|-9----------9----------7---------5------------|
|-7----------7----------5---------3------------|



Riff 6
|-------------------------------------------------|
|-------------------------------------------------|
|-------------------------------------------------|
|-----11-13-14~----11-13-14~---9-11-13~---7-9-11~-|
|--11-----------11-----------9----------7---------|
|-------------------------------------------------|
|
|-------------------------------------------------|
|-------------------------------------------------|
|-------------------------------------------------|
|-------------------------------------------------|
|-11-----------11-----------9----------7----------|
|--9------------9-----------7----------5----------|



Solo riff
|----------------------------------|
|----------------------------------|
|----------------------------------|
|----------------------------------|
|-99999999999999997777777755555555-|
|-77777777777777775555555533333333-|
  (slow strumming)


Solo
|----------------------------------------------|
|-------------17~~-16-17-16-14~-17~~-19~~-17~~-|
|----17-18-17----------------------------------|
|-14-------------------------------------------|
|----------------------------------------------|
|----------------------------------------------|

|-----------------------------------------------19~~-|
|-------------17~~-16-17-16-14~--12~--10~--9~~-------|
|----17-18-17----------------------------------------|
|-14-------------------------------------------------|
|----------------------------------------------------|
|----------------------------------------------------|
It's starts like this, but i can't do the rest,
becouse i'm too dumb to do it.


Riff 7
|----------------------------------------|
|----------------------------------------|
|----------------------------------------|
|----------------------------------------|
|----5---5-----5-4-5-----4---4-----4-5-4-|
|-7----7---7\5--------2----2---2/3-------|
|
|----------------------------------------|
|----------------------------------------|
|----------------------------------------|
|----------------------------------------|
|----5---5-----5-4-5-----4---4-----4-5-4-|
|-7----7---7\5--------2----2---2/3-------|



Riff 8
|------------------------------------------------|
|------------------------------------------------|
|------------------------------------------------|
|----------------------------------------------0-|
|---9-9-7-5-----7-7-5-5---5-5-4-4---5----5-4-4\2-|
|-7---------7-5---------3---------2---22---------|
|   .           .         .       .   ..
|------------------------------------------------|
|------------------------------------------------|
|------------------------------------------------|
|----------------------------------------------0-|
|---9-9-7-5-----7-7-5-5---5-5-4-4---5----5-4-4\2-|
|-7---------7-5---------3---------2---22---------|
    .           .         .       .   ..

Well, all rifs here, except the solo.

  Visit MetalTabs.com for more metal tablature

bottom separator

Contact Us | Privacy Policy | Disclaimer | Legal Notice
Copyright © 2001-2014 MetalTabs.com. All Rights Reserved.