top separator

Home

Forum

What's New

Submit a Tab

FAQ

Links

Contact Us

Link to Us

MetalTabs.com logo

Bands

0-9

A

B

C

D

E

F

G

H

I

J

K

L

M

N

O

P

Q

R

S

T

U

V

W

X

Y

Z

Search

What

Where
 

Illdisposed - "Intellargent" Guitar Tab

Plain Text Version
More Illdisposed Tabs

Hits: 3036
Updated: 2004-04-26 09:04:20

 

By:

Daniil

sendpm.gif

email.gif

Important note
This tab is available online because we obtained explicit permission from Illdisposed or their label.


#----------------------------------PLEASE NOTE---------------------------------#
#This file is the author's own work and represents their interpretation of the #
#song. You may only use this file for private study, scholarship, or research. #
#Unless specified otherwise, this is NOT an official tab from the band members.#
#------------------------------------------------------------------------------#

  Visit MetalTabs.com for more metal tablature
  
ILLDISPOSED-Intellargent
Kokaiinum-2001
Transcribed by Daniil Laletin
e-mail: dlaletin@mail.ru
version 1.0 December 2003

All corrections are welcome.

 " - tremolo
 / - slide down
 \ - slide up
 . - palm mute
 ~ - long sound
 x - rest
 p - pull off
 h - hammer on


Intro                                   Intro ending
|-----------------------------------|  |---------|
|-----------------------------------|  |---------|
|-----------------------------------|  |---------|
|-----------------------------------|  |---------|
|-5/7-6-----222-333-5-7-6-----222-3-|  |-----3-2-|
|-3/5-4-0-0=000-111-3-5-4-0-0-000-1-|  |-000-1-0-|
   ^ this slide only first time




Riff 1
|-----------------------------------------------------------------------|
|-----------------------------------------------------------------------|
|-----------------------------------------------------------------------|
|-----------------------------------------------------------------------|
|-222222-4/5-4/5-33333333-4/5=4/5-22222222-4/5-4/5-33333333-4/5-4/5-2-2-|
|-000000-2/3-2/3-11111111-2/3-2/3-00000000-2/3-2/3-11111111-2/3-2/3-0-0-|
  ......         ........         ........         ........


Riff 2                                                   Ending of R2
|---------------------------------------------------|   |---|
|---------------------------------------------------|   |---|
|---------------------------------------------------|   |---|
|-----------------------------------------------2"--|   |---|
|----------------------1"-------3"----2"--5"-1"-----|   |-2-|
|-0"----2"-3"-5"----1"----0"------------------------|   |-0-|



Fill 1
|-------------------------------------------------------------|
|-------------------------------------------------------------|
|-------------------------------------------------------------|
|-2~~~~~~~~~~~~~~~~~~~~~~~~~~~~~~~~~~~~~~~~~~~~~~~~~~~~~~~~~~-|
|-2-----------------------------------------------------------|
|-0-----------------------------------------------------------|


Riff 3a
|------------------------------------------|
|------------------------------------------|
|------------------------------------------|
|------------------------------------------|
|-\-----3-2----5-2----6----3-2----5-2----3-|
|-\--00-1-0-00-3-0-33-4-00-1-0-00-3-0-33-1-|
|
|------------------------------------------|
|------------------------------------------|
|------------------------------------------|
|------------------------------------------|
|------------------------------------------|
|------------------------------------------|

|---------------------------------------|
|---------------------------------------|
|---------------------------------------|
|---------------------------------------|
|----3-2----5-2----6----3-2----5-2----3-|
|-00-1-0-00-3-0-33-4-00-1-0-00-3-0-33-1-|
|
|---------------------------------------|
|---------------------------------------|
|---------------------------------------|
|---------------------------------------|
|--------------------\------------------|
|--------------------\------------------|



Riff 3b
|---------------------------------------|
|---------------------------------------|
|---------------------------------------|
|---------------------------------------|
|----3-2----5-2----6----3-2----5-2----3-|
|-00-1-0-00-3-0-33-4-00-1-0-00-3-0-33-1-|

  Visit MetalTabs.com for more metal tablature

bottom separator

Contact Us | Privacy Policy | Disclaimer | Legal Notice
Copyright © 2001-2014 MetalTabs.com. All Rights Reserved.