top separator

Home

Forum

What's New

Submit a Tab

FAQ

Links

Contact Us

Link to Us

MetalTabs.com logo

Bands

0-9

A

B

C

D

E

F

G

H

I

J

K

L

M

N

O

P

Q

R

S

T

U

V

W

X

Y

Z

Search

What

Where
 

Illdisposed - "A Girl And Her Boss" Guitar Tab

Plain Text Version
More Illdisposed Tabs

Hits: 2975
Updated: 2005-03-13 12:08:19

 

By:

Daniil

sendpm.gif

email.gif

Important note
This tab is available online because we obtained explicit permission from Illdisposed or their label.


#----------------------------------PLEASE NOTE---------------------------------#
#This file is the author's own work and represents their interpretation of the #
#song. You may only use this file for private study, scholarship, or research. #
#Unless specified otherwise, this is NOT an official tab from the band members.#
#------------------------------------------------------------------------------#

  Visit MetalTabs.com for more metal tablature
  
ILLDISPOSED-A Girl And Her Boss
Kokaiinum-2001
Transcribed by Daniil Laletin
e-mail: dlaletin@mail.ru
version 2.0 December 2004

All corrections are welcome.
 " - tremolo
 / - slide down
 \ - slide up
 . - palm mute
 ~ - long sound
 x - rest
 p - pull off
 h - hammer on
 tr - trill
 () - ghost note, sustained note
 * - artificial harmonics
 b - bend

================================

 Intro
|--------------------|
|--------------------|
|--------------------|
|-/5~--------------2-|
|------3-0-0-3-5-5-0-|
|--------------------|



 Riff 1
|------------------------------|
|------------------------------|
|------------------------------|
|-5~-----------------2---------|
|----5-0-3-0-0-3-5-5-0-0-3-3-3-|
|------------------------------|



 Riff 2
|-------------------------------|
|-------------------------------|
|-------------------------------|
|-------------------------------|
|-/5-----------/7---------5-5-5-|
|----5-0-3-0-0----5-7-5-3-3-3-3-|



 Riff 3a
|-------------------------------------------------|
|-------------------------------------------------|
|-------------------------------------------------|
|-------------------------------------------------|
|-2h5p2h3-2--2h5p2h3-2----4h7p4h5-5--2h5p2h3-3----|
|---------0----------0------------3----------1----|



 Riff 4
|-----------------------------------------|
|-----------------------------------------|
|-----------------------------------------|
|-----------------------------------------|
|-/9-9-9-9-\7-7-7-7-/10-10-10-10-\5-5-5-5-|
|-/7-7-7-7-\5-5-5-5-/-8--8--8--8-\3-3-3-3-|



 Riff 5
|---------------------------------------------|
|---------------------------------------------|
|---------------------------------------------|
|---------7-9-----5-5-5---------7-9-----------|
|-5-7-9-7-5-7-9-7-3-3-3-5-7-9-7-5-7-9-7-7-7-7-|
|-3-5-7-5-----7-5-------3-5-7-5-----7-5-5-5-5-|



 Fill 1
|-----------------------------------------------------------------|
|-----------------------------------------------------------------|
|-----------------------------------------------------------------|
|-----------------------------------7-----------------------------|
|-5~--------------5-7-7-------------5-----------5-7-7-------------|
|-3~----5-0-3-0-0-3-5-5-5-0-3-0-0-0---5-0-3-0-0-3-5-5-5-0-3-0-0-0-|



 Riff 3b
|--------------------------------------------------------------|
|--------------------------------------------------------------|
|--------------------------------------------------------------|
|--------------------------------------------------------------|
|-2h5p2h3-2--2h5p2h3-2----4h7p4h5-5--2h5p2h3-3-------2h5p2h3-2-|
|---------0----------0------------3----------1---------------0-|

  Visit MetalTabs.com for more metal tablature

bottom separator

Contact Us | Privacy Policy | Disclaimer | Legal Notice
Copyright © 2001-2014 MetalTabs.com. All Rights Reserved.