top separator

Home

Forum

What's New

Submit a Tab

FAQ

Links

Contact Us

Link to Us

MuSpy.com

MetalTabs.com logo

Bands

0-9

A

B

C

D

E

F

G

H

I

J

K

L

M

N

O

P

Q

R

S

T

U

V

W

X

Y

Z

Search

What

Where
 

Fleshcrawl - "Soulskinner" Guitar Tab

Plain Text Version
More Fleshcrawl Tabs

Hits: 3534
Updated: 2004-04-26 09:04:17

 

By:

Daniil

sendpm.gif

email.gif

Important note
This tab is available online because we obtained explicit permission from Fleshcrawl or their label.


#----------------------------------PLEASE NOTE---------------------------------#
#This file is the author's own work and represents their interpretation of the #
#song. You may only use this file for private study, scholarship, or research. #
#Unless specified otherwise, this is NOT an official tab from the band members.#
#------------------------------------------------------------------------------#

  Visit MetalTabs.com for more metal tablature
  
FLESHCRAWL-Soulskinner
Soulskinner-2001
Transcribed by Daniil Laletin
e-mail: dlaletin@mail.ru
version 1.0 January 2004

All corrections are welcome.

 " - tremolo
 / - slide down
 \ - slide up
 . - palm mute
 ~ - long sound
 x - rest
 p - pull off
 h - hammer on


Intro
|------------------------------------------------------|
|------------------------------------------------------|
|------------------------------------------------------|
|------------------------------------------------------|gtr 1
|-2x--------------------------2x-----------------8--9--|
|-0x--------------------------0x-----------------6--7--|
|
|------------------------------------------------------|
|------------------------------------------------------|
|------------------------------------------------------|
|----10"-9"----10"----9"-10"----10"-9"----10"----------|gtr 2
|-----------7"-----8"------------------7"-----8"-------|
|-0"-------------------------0"------------------6"-7"-|

|------------------------------------------------------|
|------------------------------------------------------|
|------------------------------------------------------|
|------------------------------------------------------|gtr 1
|-2--------------------------\-------------------------|
|-0--------------------------\-------------------------|
|
|------------------------------------------------------|
|------------------------------------------------------|
|------------------------------------------------------|
|----10"-9"----10"----9"-10"----10"-9"----10"----------|gtr 2
|-----------7"-----8"------------------7"-----8"-------|
|-0"-------------------------0"------------------6"-7"-|



Riff 1
|------------------------------------------------------|
|------------------------------------------------------|
|------------------------------------------------------|
|----10"-9"----10"----9"-10"----10"-9"----10"----------|
|-----------7"-----8"------------------7"-----8"-------|
|-0"-------------------------0"------------------6"-7"-|



Riff 2
|--------------------------------------------------|
|--------------------------------------------------|
|--------------------------------------------------|
|----9"----9"-7"----9"-10"----9"----9"-7"----------|
|----------------8"-----------------------8"-0"-6"-|
|-0"----0"-----------------0"----0"----------------|




Riff 3
|---------------------------------------------------------------------|
|---------------------------------------------------------------------|
|---------------------------------------------------------------------|
|-------------------------------5-4-----------------------------------|
|-------5-------3-------5-----5-3-2-------5-------3-------5-----3-3-5-|
|-0"----3-0"----1-0"----3-0"--3-----0"----3-0"----1-0"----3-0"--1-1-3-|



Riff 4a
|---------------------------------------------|
|---------------------------------------------|
|---------------------------------------------|
|-----4"----5"-2"-1"--------4"-------5"-2"-3"-|
|-2"-----2"----------3"-2"-----2"-------------|
|---------------------------------3"----------|



Riff 4a
|-----------------------------------------------|
|-----------------------------------------------|
|-----------------------------------------------|
|-----4"-----5"-2"-1"--------4"--------5"-2"-3"-|gtr 1
|-2"-----2"-----------3"-2"-----2"--------------|
|-----------------------------------3"----------|
|
|----------------------------------------------------|
|----------------------------------------------------|
|-----11"----12"-9"-8"---------11"--------12"-9"-10"-|gtr 2
|-9"------9"-----------10"-9"------9"----------------|
|-------------------------------------10"------------|
|----------------------------------------------------|



Fill 1
|--------------------------------|
|--------------------------------|
|--------------------------------|
|--------------------------------|gtr 1
|-2x-----5x----3x----5x----3-3-5-|
|-0x-----3x----1x----3x----1-1-3-|
|
|--------------------------------|
|--------------------------------|
|--------------------------------|
|--------------------------------|gtr 2
|--------------------------3-3-5-|
|-0"-----------------------1-1-3-|



Solo riff 1
|----------------------------------------------------------------------|
|----------------------------------------------------------------------|
|----------------------------------------------------------------------|
|------------------------------5-4-------------------------------------|
|-------5-------3-------5----5-3-2-------5-------3-------5-----3-3-5-2-|
|-0"----3-0"----1-0"----3-0"-3-----0"----3-0"----1-0"----3-0"--1-1-3-0-|


Solo riff 2
|----------------------|                  |--------------------|
|----------------------|        on last   |--------------------|
|----------------------|          time    |--------------------|
|-5-4-----4----4-5-----|       play this  |-5-4-----4----4-5---|
|-3-2-4-5-2----2-3-5-2-|                  |-3-2-4-5-2----2-3-5-|
|-----2-3----------3-0-|                  |-----2-3----------3-|
      . .          .                            . .          .


Riff 5a
|----------------------------------------|
|----------------------------------------|
|----------------------------------------|
|-10-9---10---9-10---10-9----------------|gtr 1
|------7----8-------------7-10\9---8-8/9-|
|------------------0---------8\7-0-6-6/7-|
|
|----------------------------------------|
|----------------------------------------|
|----------------------------------------|
|----------------------------------------|gtr 2
|------------------2--------10\9---8-8/9-|
|------------------0---------8\7-0-6-6/7-|



Riff 5
|--------------------------------------------------------------|
|--------------------------------------------------------------|
|--------------------------------------------------------------|
|----10---9-------10-------9---10----10---9-------10-----------|
|-------------7--------8----------------------7--------8-8-8/9-|
|-00----0---0---0----0---0---0----00----0---0---0----0---6-6/7-|

|------------------------------------------------------------|
|------------------------------------------------------------|
|------------------------------------------------------------|
|----10---9-------10-------9---10----10---9------------------|
|-------------7--------8----------------------7-10\9---8-8/9-|
|-00----0---0---0----0---0---0----00----0---0----8\7-0-6-6/7-|



Ending riff
|-------------------|
|-------------------|
|-------------------|
|-------------------|
|-2-2-2-2-2-2-2-2-2-|
|-0-0-0-0-0-0-0-0-0-|

  Visit MetalTabs.com for more metal tablature

bottom separator

Contact Us | Privacy Policy | Disclaimer | Legal Notice
Copyright © 2001-2014 MetalTabs.com. All Rights Reserved.