top separator

Home

Forum

What's New

Submit a Tab

FAQ

Links

Contact Us

Link to Us

MuSpy.com

MetalTabs.com logo

Bands

0-9

A

B

C

D

E

F

G

H

I

J

K

L

M

N

O

P

Q

R

S

T

U

V

W

X

Y

Z

Search

What

Where
 

Fleshcrawl - "Dying Blood" Guitar Tab

Plain Text Version
More Fleshcrawl Tabs

Hits: 2845
Rated: 4.00 out of 5 (1 vote)
Updated: 2004-04-26 09:04:15

 

By:

Daniil

sendpm.gif

email.gif

Important note
This tab is available online because we obtained explicit permission from Fleshcrawl or their label.


#----------------------------------PLEASE NOTE---------------------------------#
#This file is the author's own work and represents their interpretation of the #
#song. You may only use this file for private study, scholarship, or research. #
#Unless specified otherwise, this is NOT an official tab from the band members.#
#------------------------------------------------------------------------------#

  Visit MetalTabs.com for more metal tablature
  
FLESHCRAWL-Dying Blood
Soulskinner-2001
Transcribed by Daniil Laletin
e-mail: dlaletin@mail.ru
version 1.0 January 2004

All corrections are welcome.

 " - tremolo
 / - slide down
 \ - slide up
 . - palm mute
 ~ - long sound
 x - rest
 p - pull off
 h - hammer on


Intro
|------------------------------------------------------|
|------------------------------------------------------|
|------------------------------------------------------|
|------------------------------------------3-2-3-2-0-1-|
|------------------------------------------3-2-3-2-0-1-|
|------------------------------------------------------|
|
|------------------------------------------------------|
|------------------------------------------------------|
|------------------------------------------------------|
|-----7------------------------7-----------------------|
|---5---5-7-----7----7-8-8---5---5-7-----7-8-7-8-7-----|
|-0---------6-0---00-------0---------6-0-----------5-6-|

|---------------------------------------------------|
|---------------------------------------------------|
|---------------------------------------------------|
|----------------------3-3-2--------------------3-3-|
|----------------------3-3-2--------------------3-3-|
|--------------------------0------------------------|
|
|---------------------------------------------------|
|---------------------------------------------------|
|---------------------------------------------------|
|-----7------------------------7--------------------|
|---5---5-7-----7----7-8-8---5---5-7-----7----7-8-8-|
|-0---------6-0---00-------0---------6-0---00---8-8-|



Riff 1
|------------------------------------------------------|
|------------------------------------------------------|
|------------------------------------------------------|
|-----7------------------------7-----------------------|
|---5---5-7-----7----7-8-8---5---5-7-----7-8-7-8-7-5-6-|
|-0---------6-0---00-------0---------6-0-----------5-6-|

|---------------------------------------------------|
|---------------------------------------------------|
|---------------------------------------------------|
|-----7------------------------7--------------------|
|---5---5-7-----7----7-8-8---5---5-7-----7----7-8-8-|
|-0---------6-0---00-------0---------6-0---00---8-8-|

At last time play this

|-----------------------------------------------------|
|-----------------------------------------------------|
|-----------------------------------------------------|
|-----7------------------------7--------------------2-|
|---5---5-7-----7----7-8-8---5---5-7-----7----7-8-8-2-|
|-0---------6-0---00-------0---------6-0---00---8-8-0-|



Riff 2
|----------------------------------------------------------|
|----------------------------------------------------------|
|----------------------------------------------------------|
|----------------------------------------------------------|
|-----------------1"----1"-3"-----------3"-----------------|
|-0"--------1"-0"----0"-------0"-----------0"-3"-4"--3"-1"-|



Riff 3
|--------------------------------------------------------|
|--------------------------------------------------------|
|--------------------------------------------------------|
|---------------------3---3-5---------------5------------|
|-2-------------3-----1---1-3-2-------------3---5-6--5-3-|
|-0-0-0-0-0-0-0-1-0-0---0-----0-0-0-0-0-0-0---0-3-4--3-1-|



Riff 4a
|---------------------------------------------------------------------|
|---------------------------------------------------------------------|
|---------------------------------------------------------------------|
|---------------------------------------------------------------------|
|-22-------------------------7--8----22----------------10--8---7-10---|
|-00-------------------------5--6----00-----------------8--6---5--8---|
|
|---------------------------------------------------------------------|
|---------------------------------------------------------------------|
|---------------------------------------------------------------------|
|--------------------7"-8"--------------------------------------------|
|-----7"-10"--7"8"7"---------------------7"-10"--7"8"7"---------------|
|-0"-------------------------5"-6"---0"-----------------8"-6"--5"-8"--|

|---------------------------------------------------------------------|
|---------------------------------------------------------------------|
|---------------------------------------------------------------------|
|----------------------------------------------------------------a.h.-|
|-22-------------------------7--8----22----------------10--8---7-10---|
|-00-------------------------5--6----00-----------------8--6---5--8---|
|
|---------------------------------------------------------------------|
|---------------------------------------------------------------------|
|---------------------------------------------------------------------|
|--------------------7"-8"--------------------------------------------|
|-----7"-10"--7"8"7"---------------------7"-10"--7"8"7"---------------|
|-0"-------------------------5"-6"---0"-----------------8"-6"--5"-8"--|


Riff 4b
|---------------------------------------------------------------------|
|---------------------------------------------------------------------|
|---------------------------------------------------------------------|
|--------------------7"-8"--------------------------------------------|
|-----7"-10"--7"8"7"---------------------7"-10"--7"8"7"---------------|
|-0"-------------------------5"-6"---0"-----------------8"-6"--5"-8"--|



Riff 5
|----------------------------------------------------------|
|----------------------------------------------------------|
|----------------------------------------------------------|
|---------------------3---3-5---------------5--------------|
|-2-------------3-----1---1-3-2-------------3---5----3-3-2-|
|-0-0-0-0-0-0-0-1-0-0---0-----0-0-0-0-0-0-0-----3----1-1-0-|
|
|----------------------------------------------------------|
|----------------------------------------------------------|
|----------------------------------------------------------|
|---------------------3---3-5---------------5--------------|
|-2-------------3-----1---1-3-2-------------3---5-6--3-3-2-|
|-0-0-0-0-0-0-0-1-0-0---0-----0-0-0-0-0-0-0---0-3-4--1-1-0-|

  Visit MetalTabs.com for more metal tablature

bottom separator

Contact Us | Privacy Policy | Disclaimer | Legal Notice
Copyright © 2001-2014 MetalTabs.com. All Rights Reserved.