top separator

Home

Forum

What's New

Submit a Tab

FAQ

Links

Contact Us

Link to Us

MetalTabs.com logo

Bands

0-9

A

B

C

D

E

F

G

H

I

J

K

L

M

N

O

P

Q

R

S

T

U

V

W

X

Y

Z

Search

What

Where
 

At The Gates - "The Red in the Sky Is Ours / The Season to Some" Guitar Tab

Plain Text Version
More At The Gates Tabs

Hits: 5430
Rated: 5.00 out of 5 (1 vote)
Updated: 2004-04-26 09:04:12

 

By:

Daniil

sendpm.gif

email.gif

Important note
This tab is available online because we obtained explicit permission from At The Gates or their label.


#----------------------------------PLEASE NOTE---------------------------------#
#This file is the author's own work and represents their interpretation of the #
#song. You may only use this file for private study, scholarship, or research. #
#Unless specified otherwise, this is NOT an official tab from the band members.#
#------------------------------------------------------------------------------#

  Visit MetalTabs.com for more metal tablature
  
AT THE GATES-The Red In The Sky Is Ours / The Season To Come
The Red In The Sky Is Ours-1992
Transcribed by Daniil Laletin
e-mail: dlaletin@mail.ru
version 1.0 December 2003

All corrections are welcome.

 " - tremolo
 / - slide down
 \ - slide up
 . - palm mute
 ~ - long sound
 x - rest
 p - pull off
 h - hammer on
 tr - trill

Intro
|-----------------------------------------------------------------|
|-----------------------------------------------------------------|
|-----------------------------------------------------------------|
|-------------------999-------------------999-------------------9-|gtr 1
|-448899888-44889988----448899888-44889988----448899888-44889988--|
|-----------------------------------------------------------------|
|
|-----------------------------------------------------------------|
|-----------------------------------------------------------------|
|-----------------------------------------------------------------|
|-------------------999-------------------999-------------------9-|gtr 2
|-448899888-44889988----448899888-44889988----448899888-44889988--|
|-----------------------------------------------------------------|


Riff 1a                       Riff 1b
|------------------------|   |------------------------|
|------------------------|   |------------------------|
|------------------------|   |-777--------------------|
|-999--------------------|   |----6677663336667773322-|gtr 1
|----8899885558889995544-|   |------------------------|
|------------------------|   |------------------------|
|                            |
|------------------------|   |------------------------|
|------------------------|   |------------------------|
|------------------------|   |------------------------|
|-999--------------------|   |-999--------------------|gtr 2
|----8899885558889995544-|   |----8899885558889995544-|
|------------------------|   |------------------------|



Riff 2
|---------------------------------|
|---------------------------------|
|---------------------------------|
|----------------9----------------|gtr 1
|-8~---------------8~-------------|
|---------------------------------|
|
|---------------------------------|
|---------------------------------|
|---------------------------------|
|----------------9----------------|gtr 2
|-4-8-9-8--4-898---4-8-9-8--4-898-|
|---------------------------------|




Riff 3a
|-------------------------------------------------|
|-------------------------------------------------|
|-------------------------9"-------------7"---/10-|
|-----------------------------------5"------------|gtr 1
|---------2------5-3-5-2--------------------------|
|-0--2-3-----3---3-1-3-0--------------------------|
|
|-------------------------------------------------|
|-------------------------------------------------|
|-------------------------------------------------|
|---------9-----------------------9------------3--|gtr 2
|-7--9-10---10~--5-3-5-2--7--9-10---10~--5-3-5-1--|
|----------------3-1-3-0-----------------3-1-3----|



Riff 4
|-----------------------|
|-----------------------|
|-----------------------|
|-----------------6"----|gtr 1
|-5"--------3p2p0-------|
|-----------------------|
|
|-----------------------|
|-----------------------|
|-----------------------|
|-----------------6"----|gtr 2
|-5"--------3p2p0-------|
|-----------------------|


Riff 5
|-------------------------------------------------------------|
|-------------------------------------------------------------|
|-------------------------------------------------------------|
|-------------------------6"----------------------------6"----|gtr 1
|-5"----3p2p0-5"----3p2p0-------3p2p0-5"----3p2p0-5"----------|
|-------------------------------------------------------------|
|
|-------------------------------------------------------------|
|-------------------------------------------------------------|
|-------------------------------------------------------------|
|-------------------------6"----------------------------6"----|gtr 2
|-5"----3p2p0-5"----3p2p0-------3p2p0-5"----3p2p0-5"----------|
|-------------------------------------------------------------|


Riff 3a
|---------------------------------------|
|---------------------------------------|
|-------------------------9"------------|
|-----------------------------------5"--|gtr 1
|---------2------5-3-5-2----------------|
|-0--2-3-----3---3-1-3-0----------------|
|
|---------------------------------------|
|---------------------------------------|
|---------------------------------------|
|---------9-----------------------9-----|gtr 2
|-7--9-10---10~--5-3-5-2--7--9-10---10~-|
|----------------3-1-3-0----------------|



Riff 6                           Fill 1         Fill 2
|---------------------------|   |----------|   |-------|
|---------------------------|   |----------|   |-------|
|---------------------------|   |-/444-----|   |-------|
|---------2"-----------3"---|   |-----33---|   |-------|gtr 1
|-5-3-5-2------5-3-5-2------|   |-------22-|   |-5-3-5-|
|-3-1-3--------3-1-3--------|   |----------|   |-3-1-3-|
|                               |              |
|---------------------------|   |----------|   |-------|
|---------------------------|   |----------|   |-------|
|---------------------------|   |----------|   |-------|
|---------2"-----------3"---|   |-/555-----|   |-------|gtr 2
|-5-3-5-2------5-3-5-2------|   |-----44---|   |-5-3-5-|
|-3-1-3--------3-1-3--------|   |-------33-|   |-3-1-3-|



Riff 7a
|----------------------------------------------|
|-----------8-----9----------------8-----9-----|
|-------------6-5---7-5--------------6-5---7-5-|
|-7tr8-10"---------------7tr8-10"--------------|gtr 1
|----------------------------------------------|
|----------------------------------------------|
|
|----------------------------------------------|
|-----------8-----9----------------8-----9-----|
|-------------6-5---7-5--------------6-5---7-5-|
|-7tr8-10"---------------7tr8-10"--------------|gtr 2
|----------------------------------------------|
|----------------------------------------------|

|----------------------------------------------|
|-----------8-----9----------------8-----9-----|
|-------------6-5---7-5--------------6-5---7-5-|
|-7tr8-10"---------------7tr8-10"--------------|gtr 1
|----------------------------------------------|
|----------------------------------------------|
|
|----------------------------------------------|
|----------------------------------------------|
|----------------------------------------------|
|-7tr8-10"---------------7tr8-10"--5-----6-----|gtr 2
|-----------------5"-----------------4-0---5-0-|
|----------------------------------------------|

Play Fill 1 two times

|----------------------------------------------|
|-----------8-----9----------------8-----9-----|
|-------------6-5---7-5--------------6-5---7-5-|
|-7tr8-10"---------------7tr8-10"--------------|gtr 1
|----------------------------------------------|
|----------------------------------------------|
|
|----------------------------------------------|
|----------------------------------------------|
|----------------------------------------------|
|-7tr8-10"---------------7tr8-10"--------------|gtr 2
|-----------------5"---------------------5-----|
|----------------------------------------------|


Riff 7b
|------------------------------------------------------|
|-------8-----9-------------8-----9--------------------|
|---------6-5---7-5x----------6-5---7-5x---------------|
|-7h8p7---------------7h8p7---------------5-----6------|gtr 1
|-------------------------------------------4-0---5-0x-|
|------------------------------------------------------|
|
|------------------------------------------------------|
|------------------------------------------------------|
|------------------------------------------------------|
|-7h8p7-10"----------7h8p7-10"------------5-----6------|gtr 2
|-------------5"---x--------------5"---x----4-0---5-0x-|
|------------------------------------------------------|


Riff 8
|------------------------|
|------------------------|
|------------------------|
|-------------------6"---|gtr 1
|-5-2-0-5-2-0-5-2-0------|
|------------------------|
|
|------------------------|
|------------------------|
|------------------------|
|-------------------6"---|gtr 2
|-5-2-0-5-2-0-5-2-0------|
|------------------------|


Riff 9
|-----------------------------------------------|
|-----------------------------------------------|
|------------------------------------------8"---|
|-------------------6"--------------------------|gtr 1
|-5-2-0-5-2-0-5-2-0------5-2-0-5-2-0-5-2-0------|
|-----------------------------------------------|
|
|-----------------------------------------------|
|-----------------------------------------------|
|-----------------------------------------------|
|-------------------6"---------------------6"---|gtr 2
|-5"----------3-2-0------5"----------3-2-0------|
|-----------------------------------------------|


Riff 10
|---------------------------------------------|
|---------------------------------------------|
|---------------------------------------------|
|-------------------999-------------------999-|gtr 1
|-448899888-44889988----448899888-44889988----|
|---------------------------------------------|
|
|---------------------------------------------|
|---------------------------------------------|
|---------------------------------------------|
|-------------------999-------------------999-|gtr 2
|-448899888-44889988----448899888-44889988----|
|---------------------------------------------|

|--------------------------------------------|
|--------------------------------------------|
|-----------------------------------------11-|
|---------------------------------66101110---|gtr 1
|---------------------3----------------------|
|-2~--------------------2~-------------------|
|
|--------------------------------------------|
|--------------------------------------------|
|--------------------------------------------|
|-------------------999-------------------9--|gtr 2
|-448899888-44889988----448899888-44889988---|
|--------------------------------------------|

  Visit MetalTabs.com for more metal tablature

bottom separator

Contact Us | Privacy Policy | Disclaimer | Legal Notice
Copyright © 2001-2014 MetalTabs.com. All Rights Reserved.