top separator

Home

Forum

What's New

Submit a Tab

FAQ

Links

Contact Us

Link to Us

MetalTabs.com logo

Bands

0-9

A

B

C

D

E

F

G

H

I

J

K

L

M

N

O

P

Q

R

S

T

U

V

W

X

Y

Z

Search

What

Where
 

At The Gates - "Kingdom Gone" Guitar Tab

Plain Text Version
More At The Gates Tabs

Hits: 5629
Rated: 3.00 out of 5 (1 vote)
Updated: 2004-04-26 09:04:04

 

By:

Daniil

sendpm.gif

email.gif

Important note
This tab is available online because we obtained explicit permission from At The Gates or their label.


#----------------------------------PLEASE NOTE---------------------------------#
#This file is the author's own work and represents their interpretation of the #
#song. You may only use this file for private study, scholarship, or research. #
#Unless specified otherwise, this is NOT an official tab from the band members.#
#------------------------------------------------------------------------------#

  Visit MetalTabs.com for more metal tablature
  
AT THE GATES-Kingdom Gone
The Red In The Sky Is Ours-1992
Transcribed by Daniil Laletin
e-mail: dlaletin@mail.ru
version 1.0 December 2003

All corrections are welcome.

 " - tremolo
 / - slide down
 \ - slide up
 . - palm mute
 ~ - long sound
 x - rest
 p - pull off
 h - hammer on


Riff 1a
|-------------------------------------------------------------------|
|-------------------------------------------------------------------|
|-------------------------------------------------------------------|
|-------------------------------------------------------------------|gtr 1
|-2--------------------------------6--------------------------------|
|-0--------------------------------4--------------------------------|
|
|-------------------------------------------------------------------|
|-------------------------------------------------------------------|
|-------------2222-----------------------------2222-----------------|
|-2222----1111----2222----1111-----2222----1111----2222----1111-----|gtr 2
|-----3333------------3333----0000-----3333------------3333----0000-|
|-------------------------------------------------------------------|


Riff 1b
|-------------------------------------------------------------------|
|-------------------------------------------------------------------|
|-------------------------------------------------------------------|
|-------------------------------------------------------------------|gtr 1
|-2--------------------------------6--------------------------------|
|-0--------------------------------4---------------------------\----|
|
|-------------------------------------------------------------------|
|-------------------------------------------------------------------|
|-------------2222-----------------------------2222-----------------|
|-2222----1111----2222----1111-----2222----1111----2222----1111-----|gtr 2
|-----3333------------3333----0000-----3333------------3333----0000-|
|-------------------------------------------------------------------|


Riff 2a
|----------------------------------|
|----------------------------------|
|-------------2222-----------------|
|-2222----1111----2222----1111-----|gtr 1
|-----3333------------3333----0000-|
|----------------------------------|
|
|----------------------------------|
|----------------------------------|
|-------------2222-----------------|
|-2222----1111----2222----1111-----|gtr 2
|-----3333------------3333----0000-|
|----------------------------------|


Riff 2b
|----------------------------------|
|-------------5555-----------------|
|-4444----3333----4444----3333-----|
|-----5555------------5555----2222-|gtr 1
|----------------------------------|
|----------------------------------|
|
|----------------------------------|
|----------------------------------|
|-------------2222-----------------|
|-2222----1111----2222----1111-----|gtr 2
|-----3333------------3333----0000-|
|----------------------------------|



Riff 3
|--------------------------------------------------------------------------|
|--------------------------------------------------------------------------|
|--------------------------------------------------------------------------|
|----------------------------3333---------------------------------33333333-|gtr1
|-----2222---------------2222--------------2222---------------2222---------|
|-1111----1111-1-4-3-1111--------1-4-3-1111----1111-1-4-3-1111-------------|
|
|--------------------------------------------------------------------------|
|--------------------------------------------------------------------------|
|--------------------------------------------------------------------------|
|----------------------------3333---------------------------------33333333-|gtr2
|-----2222---------------2222--------------2222---------------2222---------|
|-1111----1111-1-4-3-1111--------1-4-3-1111----1111-1-4-3-1111-------------|



Riff 4
|---------------------------------------------------------------|
|---------------------------------------------------------------|
|---------------------------------------------------------------|
|-----------------------------2222----------------------------3-|gtr 1
|-----22221111--------22221111--------22221111--------33334444--|
|-0000--------33330000------------0000--------33331111----------|
|
|---------------------------------------------------------------|
|---------------------------------------------------------------|
|---------------------------------------------------------------|
|-----------------------------2222----------------------------3-|gtr 2
|-----22221111--------22221111--------22221111--------33334444--|
|-0000--------33330000------------0000--------33331111----------|



Riff 5                                         1             2
|---------------------------------------------|-------------|------|
|---------------------------------------------|-------------|------|
|---------------------------------------------|-------------|9-8-4-|
|---------------------------------------------|-------------|------|gtr 1
|-222222223p22221111114433111111222222223p2222|111111-------|------|
|---------------------------------------------|------333333-|------|
|
|---------------------------------------------|-------------|------|
|---------------------------------------------|-------------|------|
|---------------------------------------------|-------------|9-8-4-|
|---------------------------------------------|-------------|------|gtr 2
|-222222223p22221111114433111111222222223p2222|111111-------|------|
|---------------------------------------------|------333333-|------|




Riff 6
|--------------------------------------------------------------------|
|--------------------------------------------------------------------|
|---------------0h3h5h7--------------0h3h5h7--------------0h3h5h7-8~-|
|--------0h3h5h7--------------0h3h5h7--------------0h3h5h7-----------|gtr1
|-0h3h5h7--------------0h3h5h7--------------0h3h5h7------------------|
|--------------------------------------------------------------------|
|
|--------------------------------------------------------------------|
|--------------------------------------------------------------------|
|---------------0h3h5h7--------------0h3h5h7--------------0h3h5h7-8~-|
|--------0h3h5h7--------------0h3h5h7--------------0h3h5h7-----------|gtr2
|-0h3h5h7--------------0h3h5h7--------------0h3h5h7------------------|
|--------------------------------------------------------------------|

|----------------------------------------------------------------------------|
|----------------------------------------------------------------------------|
|---------------0h3h5h7--------------0h3h5h7--------------0h3h5h7-8~-9-8-4---|
|--------0h3h5h7--------------0h3h5h7--------------0h3h5h7-----------------4-|g1
|-0h3h5h7--------------0h3h5h7--------------0h3h5h7--------------------------|
|----------------------------------------------------------------------------|
|
|----------------------------------------------------------------------------|
|----------------------------------------------------------------------------|
|---------------0h3h5h7--------------0h3h5h7--------------0h3h5h7-8~-9-8-4---|
|--------0h3h5h7--------------0h3h5h7--------------0h3h5h7-----------------4-|g2
|-0h3h5h7--------------0h3h5h7--------------0h3h5h7--------------------------|
|----------------------------------------------------------------------------|


Riff 7
|----------------------------------------------------------|
|----------------------------------------------------------|
|----------------------------------------------------------|
|----------------------------------------------------------|gtr 1
|-222222223p22221111114433111111222222223p2222111111-------|
|---------------------------------------------------333333-|
|
|----------------------------------------------------------|
|----------------------------------------------------------|
|----------------------------------------------------------|
|----------------------------------------------------------|gtr 2
|-222222223p22221111114433111111222222223p2222111111-------|
|---------------------------------------------------333333-|

|----------------------------------------------------------|
|----------------------------------------------------------|
|----------------------------------------------------------|
|-444444445p44443333336655333333444444445p4444-3-3-3-------|gtr 1
|----------------------------------------------------5-5-5-|
|----------------------------------------------------------|
|
|----------------------------------------------------------|
|----------------------------------------------------------|
|----------------------------------------------------------|
|----------------------------------------------------------|gtr 2
|-222222223p22221111114433111111222222223p2222-1-1-1-------|
|----------------------------------------------------3-3-3-|


Riff 8a
|-------------------------|
|-------------------------|
|-------------------------|
|-2-2222-3-2222-----------|gtr 1
|--------------1133443343-|
|-------------------------|
|
|-------------------------|
|-------------------------|
|-------------------------|
|-2-2222-3-2222-----------|gtr 2
|--------------1133443343-|
|-------------------------|


Riff 8b
|-------------------------|
|-------------------------|
|-4-4444-5-4444-----------|
|--------------3355665565-|gtr 1
|-------------------------|
|-------------------------|
|
|-------------------------|
|-------------------------|
|-------------------------|
|-2-2222-3-2222-----------|gtr 2
|--------------1133443343-|
|-------------------------|


Riff 9a
|----------------------------------------------|
|----------------------------------------------|
|-44444444-------------------------------------|
|----------55555555-44444444-44444444-22222222-|gtr 1
|----------------------------------------------|
|----------------------------------------------|
|
|----------------------------------------------|
|----------------------------------------------|
|----------------------------------------------|
|----------------------------------------------|gtr 2
|-22222222-------------------55555555-44444444-|
|----------33333333-22222222-------------------|

|----------------------------------------------|
|----------------------------------------------|
|-44444444-------------------77777777-66666666-|
|----------55555555-44444444-------------------|gtr 1
|----------------------------------------------|
|----------------------------------------------|
|
|----------------------------------------------|
|----------------------------------------------|
|----------------------------------------------|
|----------------------------------------------|gtr 2
|-22222222-------------------55555555-44444444-|
|----------33333333-22222222-------------------|

|----------------------------------------------|
|----------------------------------------------|
|-44444444-------------------------------------|
|----------55555555-44444444-44444444-22222222-|gtr 1
|----------------------------------------------|
|----------------------------------------------|
|
|----------------------------------------------|
|----------------------------------------------|
|----------------------------------------------|
|----------------------------------------------|gtr 2
|-22224455-----5555----------55555555-44444444-|
|----------3333-----22222222-------------------|

|----------------------------------------------|
|----------------------------------------------|
|-44444444-------------------------------------|
|----------55555555-44444444-476--476-476--476-|gtr 1
|----------------------------------------------|
|----------------------------------------------|
|
|----------------------------------------------|
|----------------------------------------------|
|----------------------------------------------|
|----------------------------------------------|gtr 2
|-22224455-----5555----------55555555-44444444-|
|----------3333-----22222222-------------------|



Riff 10 - (gtr 2 all tremolo notes)
|--------------------------------------------------------|
|--------------------------------------------------------|
|--------------------------------------------------------|
|--------------------------------------------------------|gtr 1
|-2------/3-2----------------------/5-4------------------|
|-0---------------4-------6---------------------3--------|
|
|--------------------------------------------------------|
|--------------------------------------------------------|
|-910-910-910-910-910-910-/1011-1011-1011-1011-1011-1011-|
|--------------------------------------------------------|gtr 2
|--------------------------------------------------------|
|--------------------------------------------------------|

|-------------------------------------------------|
|-------------------------------------------------|
|-------------------------------------------------|
|-------------------------------------------------|gtr 1
|-----------/3-2-----------------------/3-2-------|
|-4-----3----------1------4-------3-----------1---|
|
|-------------------------------------------------|
|-------------------------------------------------|
|-89-89-89-89-89-89-89-89-89109-89109-89109-89109-|
|-------------------------------------------------|gtr 2
|-------------------------------------------------|
|-------------------------------------------------|

|--------------------------------------------------------|
|--------------------------------------------------------|
|--------------------------------------------------------|
|--------------------------------------------------------|gtr 1
|-2------/3-2----------------------/5-4------------------|
|-0---------------4-------6---------------------3--------|
|
|--------------------------------------------------------|
|--------------------------------------------------------|
|-910-910-910-910-910-910-91011-1011-1011-1011-1011-1011-|
|--------------------------------------------------------|gtr 2
|--------------------------------------------------------|
|--------------------------------------------------------|

|-------------------------------------------------|
|-------------------------------------------------|
|-------------------------------------------------|
|-------------------------------------------------|gtr 1
|-----------/3-2-----------------------/3-2-------|
|-4-----3----------1------4-------3-----------1---|
|
|-------------------------------------------------|
|---------------------------11----11----11----11--|
|-89-89-89-89-89-89-89-89-89--9-89--9-89--9-89--9-|
|-------------------------------------------------|gtr 2
|-------------------------------------------------|
|-------------------------------------------------|



Riff 11a
|-----------------------------------------|
|-----------------------------------------|
|-----------------------------------------|
|-----------------------------------------|gtr 1
|-63-63-63-63-63-63-63-63-63-63-63-63-63--|
|-----------------------------------------|
|
|-----------------------------------------|
|-----------------------------------------|
|-----------------------------------------|
|-------------------------------4-4-4-4-4-|gtr 2
|-66-66-33-33-------66-66-33-33-----------|
|--.-----.----22-22--.-----.--------------|
               .


Riff 11b
|-----------------------------------------------------|
|-----------------------------------------------------|
|-----------------------------------------------------|
|-----------------------------------------------------|gtr 1
|-63-63-63-63--63-63-63-63--63-63-63-63--63-63-63-63--|
|---------------------------------------------------2-|
|
|-----------------------------------------------------|
|----------7------------7------------7------------7---|
|-63-74-85--85-63-74-85--85-63-74-85--85-63-74-85--85-|
|-----------------------------------------------------|gtr 2
|-----------------------------------------------------|
|-----------------------------------------------------|



Riff 9b
|----------------------------------------------|
|----------------------------------------------|
|-44444444-------------------------------------|
|----------55555555-44444444-44444444-22222222-|gtr 1
|----------------------------------------------|
|----------------------------------------------|
|
|----------------------------------------------|
|----------------------------------------------|
|----------------------------------------------|
|----------------------------------------------|gtr 2
|-22222222-------------------55555555-44444444-|
|----------33333333-22222222-------------------|

|----------------------------------------------|
|----------------------------------------------|
|-44444444-------------------77777777-66666666-|
|----------55555555-44444444-------------------|gtr 1
|----------------------------------------------|
|----------------------------------------------|
|
|----------------------------------------------|
|----------------------------------------------|
|----------------------------------------------|
|----------------------------------------------|gtr 2
|-22222222-------------------55555555-44444444-|
|----------33333333-22222222-------------------|

|----------------------------------------------|
|----------------------------------------------|
|-44444444-------------------------------------|
|----------55555555-44444444-44444444-22222222-|gtr 1
|----------------------------------------------|
|----------------------------------------------|
|
|----------------------------------------------|
|----------------------------------------------|
|----------------------------------------------|
|----------------------------------------------|gtr 2
|-22224455-----5555----------55555555-44444444-|
|----------3333-----22222222-------------------|

|------------------------------------------------|
|------------------------------------------------|
|-44444444---------------------------------------|
|----------55555555-44444444-77777777-6666-------|gtr 1
|------------------------------------------------|
|------------------------------------------1-4-3-|
|
|------------------------------------------------|
|------------------------------------------------|
|------------------------------------------------|
|------------------------------------------------|gtr 2
|-22224455-----5555----------55555555-4444-------|
|----------3333-----22222222---------------1-4-3-|

  Visit MetalTabs.com for more metal tablature

bottom separator

Contact Us | Privacy Policy | Disclaimer | Legal Notice
Copyright © 2001-2014 MetalTabs.com. All Rights Reserved.