top separator

Home

Forum

FAQ

Contact Us

Link to Us

MetalTabs.com logo

Bands

0-9

A

B

C

D

E

F

G

H

I

J

K

L

M

N

O

P

Q

R

S

T

U

V

W

X

Y

Z

Marduk - "Bleached Bones" Guitar Tab

Plain Text Version
More Marduk Tabs

Hits: 4741
Rated: 1.50 out of 5 (4 votes)
Updated: 2004-04-26 04:52:40

By:

Blashyrkh


#----------------------------------PLEASE NOTE---------------------------------#
#This file is the author's own work and represents their interpretation of the #
#song. You may only use this file for private study, scholarship, or research. #
#Unless specified otherwise, this is NOT an official tab from the band members.#
#------------------------------------------------------------------------------#

  Visit MetalTabs.com for more metal tablature
  
NOTE: This is the transcribed tab for the live version of Bleached Bones
featured on the DVD Funeral Marches and Warsongs. It is only a little bit
different but I've tried to do it so it's not too different. And this is my
first fully tabbed song I've completed and posted, so any comments or
corrections would be most welcome.

Here's to all you bitches who've wanted this song tabbed....

Artist: Marduk
Album: World Funeral
Track: 2 - Bleached Bones
Author: BJ

Normal Tuning (E, A, D, G, B, E)

Tab Symbols Used:
    . = Palm Mute  H = Harmonic Note
    ~~ = Vibrato   / = Slide
    " = Tremolo Picking

Intro/Riff A
                   (16x)
|----------------------|
|----------------------|
|----------------------|
|--------2-------------|
|--2--2--0--2--3-------|
|--0--0-----0--1-------|
            .

Riff B
A possible bend on the fifth note...                          (2x)
|----------------------------------------------------------------|
|----------------------------------------------------------------|
|----------------------------------------------(H)---------------|
|-----------------------------------------------9------2---------|
|------7---9(~)----------7---9-10-10-9------7----------0-------5-|
|--0-0---0-----------0-0---0------------0-0---0----------------3-|
   . .   .           . .   .            . .   .

OR

|--------------
|--------------
|--------------
|------2----4--
|-------------- so on. If you play it this way, you get a clearer and sharper
|--0-0---0----- sound, but you can't play the harmonic note.
   . .   .      Your choice here.



Riff A x 12
Riff B x 2

Riff 3             (10x)
|-----------------------|
|-----------------------|
|-----------------------|
|-----------------------|
|--2-2-5--5---7--4---4--|
|--0-0-3--3------2---2--|
   . .

Riff 4                                            (4x)
|-----------------------------------------------------|
|-----------------------------------------------------|
|-----------------------------------------------------|
|-----------------------------------------------------|
|-4---4-4--5--4---4-4--4---4---4-4--5-4-5//7--7/6-6/5-|
|-2---2-2--3--2---2-2--2---2---2-2--3-2-3//5--5/4-4/3-|

Riff 1 x 12
Riff 3 x 4
Riff 4 x 4

Riff 5                                                       (6x)
|---------------------------------------------------------------|
|---------------------------------------------------------------|
|---------------------------------------------------------------|
|--9"------------7"---------------------------------------------|
|--7"------------5"----------10"--9"--------7"--9"--10"--9"--7"-|
|-----------------------------8"--7"--------5"--7"---8"--7"--5"-|

|-----------------------------------------------------------------|
|-----------------------------------------------------------------|
|-----------------------------------------------------------------|
|-9"------------7"------------------------------------------------|
|-7"------------5"------------10"--9"--------10"--9"--7"--9"--10"-|
|------------------------------8"--7"---------8"--7"--5"--7"---8"-|

Riff 4 x 4

Riff 4b
|-----------------------------------------------------------------
|-----------------------------------------------------------------
|-----------------------------------------------------------------
|-----------------------------------------------------------------
|-4--------5--4------------4--------5----4--7--7----7--6--6-----4-
|-2--------3--2------------2--------3----2--5--5----5--4--4-----2-

-----------------|
-----------------|
-----------------|
-----------------|
-----------5---4-|
-----------3---2-| and hold until fade.

 BJ Monday 26th of the 4th 2004

  Visit MetalTabs.com for more metal tablature

bottom separator

Contact Us | Privacy Policy | Disclaimer
Copyright © 2001-2014 MetalTabs.com. All Rights Reserved.