top separator

Home

Forum

What's New

Submit a Tab

FAQ

Links

Contact Us

Link to Us

MetalTabs.com logo

Bands

0-9

A

B

C

D

E

F

G

H

I

J

K

L

M

N

O

P

Q

R

S

T

U

V

W

X

Y

Z

Search

What

Where
 

Asmegin - "Efterbyrden" Guitar Tab

Plain Text Version
More Asmegin Tabs

Hits: 5411
Rated: 3.80 out of 5 (5 votes)
Updated: 2004-04-26 04:49:34

 

By:

Darkenelf

sendpm.gif

email.gif

Important note
This tab is available online because we obtained explicit permission from Asmegin or their label.


#----------------------------------PLEASE NOTE---------------------------------#
#This file is the author's own work and represents their interpretation of the #
#song. You may only use this file for private study, scholarship, or research. #
#Unless specified otherwise, this is NOT an official tab from the band members.#
#------------------------------------------------------------------------------#

  Visit MetalTabs.com for more metal tablature
  
Band: Asmegin
Album: Hin Vordende Sod & So
Song: Efterbyrden
Tabbed by: Martijn Wietsma
Tab Date: 24-04-2004
Email: northerland@yahoo.co.uk

Standard E Tuning

riff A
|--------------------------------------------------------|
|--------------------------------------------------------|
|--------------------------------------------------------|
|-7----7----5----5---------------------------------------|
|-5----5----3----3---------------------------------------|
|--------------------------------------------------------|
                                                (2x)
riff B (lead) under riff A
|--------------------------------------------------------|
|--------------------------------------------------------|
|---------7---5--------------7---5-----------------------|
|---7---7---7---8------7---7---7---8---------------------|
|-5---5--------------5---5-------------------------------|
|--------------------------------------------------------|

riff C (lead) (0:10) under riff A
|--------------------------------------------------------|
|--------------------------------------------------------|
|---------5---3--------------5---3-----------------------|
|---5---5---5---6------5---5---5---6---------------------|
|-3---3--------------3---3-------------------------------|
|--------------------------------------------------------|

repeat riff B 1x
repeat riff C 1x

riff D (0:27) (fast part)
|--------------------------------------------------------|
|--------------------------------------------------------|
|--------------------------------------------------------|
|---7-5-8-7---5-------7-5-8-7---5-------7-5-8-7---5------|
|-5---------8---7---5---------8---7---5---------8---7----|
|--------------------------------------------------------|

riff E
|--------------------------------------------------------|
|--------------------------------------------------------|
|--------------------------------------------------------|
|---5-3-6-5---3-------5-3-6-5---3------------------------|
|-3---------6---6---3---------6---6----------------------|
|--------------------------------------------------------|

riff D (0:41)
|--------------------------------------------------------|
|--------------------------------------------------------|
|--------------------------------------------------------|
|---7-5-8-7---5-------7-5-8-7---5------------------------|
|-5---------8---7---5---------8---7----------------------|
|--------------------------------------------------------|

repeat riff E 1x

riff F (0:50)
|--------------------------------------------------------|
|--------------------------------------------------------|
|--------------------------------------------------------|
|------2------------------2------------------------------|
|-4--4-2----3p2h-----4--4-2----3p2h----------------------|
|-2--2-0--0------5---2--2-0--0------5--------------------|

|--------------------------------------------------------|
|--------------------------------------------------------|
|--------------------------------------------------------|
|------2------------------2------------------------------|
|-4--4-2----3p2h-----4--4-2------------------------------|
|-2--2-0--0------5---2--2-0--3~--------------------------|

riff G (1:09)
|--------------------------------------------------------|
|--------------------------------------------------------|
|--------------------------------------------------------|
|--------2-----2-----------------------------------------|
|-4--4---2-4-5-2-----------------------------------------|
|-2--2---0-2-3-0-----------------------------------------|
  .      . . . .                                (8x)

riff H (1:30)
|--------------------------------------------------------|
|--------------------------------------------------------|
|--------------------------------------------------------|
|--------2-----2-----------------------------------------|
|-4--4---2-4-5-2-----------------------------------------|
|-2--2---0-2-3-0-----------------------------------------|
                                                (4x)
riff I (1:42) (fast part)
|--------------------------------------------------------|
|--------------------------------------------------------|
|------------------6666666666666666----------------------|
|-7777777777777777-4444444444444444----------------------|
|-5555555555555555---------------------------------------|
|--------------------------------------------------------|
                                                (4x)
riff J (1:55)
|--------------------------------------------------------|
|--------------------------------------------------------|
|-------6------------6-----------------------------------|
|-7-----4------7-----4-----------------------------------|
|-5------------5-----------------------------------------|
|--------------------------------------------------------|
                                                (4x)
riff K (2:09) (fast part)
|--------------------------------------------------------|
|--------------------------------------------------------|
|--------------------------------------------------------|
|-77777777-6\3---77777777-6~-----------------------------|
|--------------------------------------------------------|
|--------------------------------------------------------|
                                                (2x)
riff L (2:28)
|--------------------------------------------------------|
|--------------------------------------------------------|
|--------------------------------------------------------|
|---5-7-------5---------5-7-------5----------------------|
|-5-----8---5---8-7---8-----8---8---8-7------------------|
|--------------------------------------------------------|

riff M (2:34)
|--------------------------------------------------------|
|--------------------------------------------------------|
|-----------------------------------7~-------------------|
|---5-7-------8-7-------5-7-------5----------------------|
|-5-----8---5-----8---5-----8---5------------------------|
|--------------------------------------------------------|

repeat riff L 1x
repeat riff M 1x
repeat riff F 1x
repeat riff G 8x
repeat riff H 4x (3:29)
repeat riff I 4x (3:36)
repeat riff J 4x

riff K (play it muted) (soft on the background)
|--------------------------------------------------------|
|--------------------------------------------------------|
|--------------------------------------------------------|
|-4----------------------4-------------------------------|
|---4--5-4----4--5-4-------4--5-4--2-4-------------------|
|-----------2--------------------------2-----------------|
 p.m....................................

riff L (till end of song)
|--------------------------------------------------------|
|--------------------------------------------------------|
|--------------------------------------------------------|
|-4----------------------4-------------------------------|
|---4--5-4----4--5-4-------4--5-4--2-4-------------------|
|-----------2--------------------------2-----------------|

  Visit MetalTabs.com for more metal tablature

bottom separator

Contact Us | Privacy Policy | Disclaimer | Legal Notice
Copyright © 2001-2014 MetalTabs.com. All Rights Reserved.