top separator

Home

Forum

What's New

Submit a Tab

FAQ

Links

Contact Us

Link to Us

MetalTabs.com logo

Bands

0-9

A

B

C

D

E

F

G

H

I

J

K

L

M

N

O

P

Q

R

S

T

U

V

W

X

Y

Z

Search

What

Where
 

Belenos - "Pensées" Guitar Tab

Plain Text Version
More Belenos Tabs

Hits: 4480
Rated: 4.33 out of 5 (3 votes)
Updated: 2004-04-26 04:49:11

 

By:

Darkenelf

sendpm.gif

email.gif

Important note
This tab is available online because we obtained explicit permission from Belenos or their label.


#----------------------------------PLEASE NOTE---------------------------------#
#This file is the author's own work and represents their interpretation of the #
#song. You may only use this file for private study, scholarship, or research. #
#Unless specified otherwise, this is NOT an official tab from the band members.#
#------------------------------------------------------------------------------#

  Visit MetalTabs.com for more metal tablature
  
Band: Belenos
Album: Triste Pensee
Song: Pensees
Tabbed by: Martijn Wietsma
Tab Date: 24-04-2004
Email: northerland@yahoo.co.uk

Standard E Tuning

~ = pull string down
/ = forward slide
\ = backward slide
h = hammer
p = pick
. = palm mute

riff A (acoustic)
|------------------------------------------------------|
|------------------------------------------------------|
|------------------------------------------------------|
|-------------------------------------------------5----|
|---2-3-2--2-3-2--2-3-5-5-3-2-----2-3-2--2-3-2----3-2~-|
|-5-----------------------------5--------------5~------|
                                                (2x)
riff B (0:20)
|----------------------------------------------------|
|----------------------------------------------------|
|----------------------------------------------------|
|----------------------------------------------------|
|-9-----1010-9--1010-7--1010-9-----------------------|
|-7------8-8-7---8-8-5---8-8-7-----------------------|
                                                (1x)
riff C (0:35)
|----------------------------------------------------|
|----------------------------------------------------|
|----------------------------------------------------|
|----------------------------------------------------|
|-1010-9--1010-7--1010-9--1010-7---------------------|
|--8-8-7---8-8-5---8-8-7---8-8-5---------------------|
                                                (2x)
(lead solo is too fast, too hard to hear)

riff D (muted distortion) (0:51)
|----------------------------------------------------|
|----------------------------------------------------|
|----------------------------------------------------|
|----------------------------------------------------|
|---2-3-2--2-3-2--2-3-5-5-3-2----2-3-2--2-3-2--------|
|-5----------------------------5--------------5~-3p2-|

|----------------------------------------------------|
|----------------------------------------------------|
|----------------------------------------------------|
|----------------------------------------------------|
|---2-3-2--2-3-2--2-3-5-5-3-2----2-3-2--2-3-2----3-2-|
|-5----------------------------5--------------5~-----|

riff E (1:10)
|----------------------------------------------------|
|----------------------------------------------------|
|-4-7-5~-------------4-7-5~--------------------------|
|-4-------7-7\5~-----4-------7-7\5~------------------|
|---------7------------------7-----------------------|
|----------------------------------------------------|

riff F (1:23)
|----------------------------------------------------|
|----------------------------------------------------|
|-4444444444444444-----------------------------------|
|-4444444444444444-7777777777777777------------------|
|------------------7777777777777777------------------|
|----------------------------------------------------|
                                                (4x)
riff G (1:50) (acoustic)
|----------------------------------------------------|
|----------------------------------------------------|
|----------------------------------------------------|
|----------------------------------------------------|
|----------------------------------------------------|
|-0-0-5-5--0-0-5-5--0-0-5-5--0-0-5-5-----------------|

|----------------------------------------------------|
|----------------------------------------------------|
|----------------------------------------------------|
|----------------------------------------------------|
|-----2-2------2-2------2-2------2-2-----------------|
|-0-0------0-0------0-0------0-0---------------------|

repeat riff G 1x

riff H (acoustic) (2:13)
|----------------------------------------------------|
|----------------------------------------------------|
|----------------------------------------------------|
|----------------------------------------------------|
|-3-3-2-2----------2-2-----2-2-----2-2-----2-2-------|
|---------5-5-5-5------0-0-----0-0-----0-0-----0-0---|

|----------------------------------------------------|
|----------------------------------------------------|
|----------------------------------------------------|
|----------------------------------------------------|
|-5-5-3-3--2---2h3-2--2-2-----2-2-----2-2-----2-2----|
|------------5------------0-0-----0-0-----0-0-----0-0|

riff I (this sound looks like "One" of metallica)
quite difficult to hear the exact notes...haven't finished it.
|----------------------------------------------------|
|----------------------------------------------------|
|----------------------------------------------------|
|---4---0----4---0-etc...(don't know the part)-------|
|-2---2----2---2-------------------------------------|
|----------------------------------------------------|

riff J (3:06)
|-------------------------------------------------------|
|-------------------------------------------------------|
|-------------------------------------------------------|
|-------------------------------------------------------|
|-55555-44444---55555-44444---55555-44444---55555-44444-|
|-33333-22222---33333-22222---33333-22222---33333-22222-|

riff K (3:20)
|-------------------------------------------------------|
|-------------------------------------------------------|
|-------------------------------------------------------|
|-44444-33333---44444-33333---44444-33333---44444-33333-|
|-22222-11111---22222-11111---22222-11111---22222-11111-|
|-------------------------------------------------------|

riff L (3:38)
|----------------------------------------------------|
|----------------------------------------------------|
|----------------------------------------------------|
|-44444-3333-----------------44444-3333--------------|
|-22222-1111--5-55-55-55-5---22222-1111--5-55-55-55/7|
|-------------3-33-33-33-3---------------3-33-33-33/5|

riff M
|---------------------------------------------------------|
|---------------------------------------------------------|
|---------------------------------------------------------|
|-44444-3333-----------------44444-3333-------------555\4-|
|-22222-1111--5-55-55-55-5---22222-1111--5-55-55-55-333\2-|
|-------------3-33-33-33-3---------------3-33-33-33-------|

riff N (4:08) (ending riff)
|----------------------------------------------------|
|----------------------------------------------------|
|----------------------------------------------------|
|-4-44-4-44-4-44-5-5-5\4-------------------5-5-5\4---|
|-2-22-2-22-2-22-3-3-3\2--5-55-5-55-5-55-5-3-3-3\2---|
|-------------------------3-33-3-33-3-33-3-----------|
                                                (2x)

  Visit MetalTabs.com for more metal tablature

bottom separator

Contact Us | Privacy Policy | Disclaimer | Legal Notice
Copyright © 2001-2014 MetalTabs.com. All Rights Reserved.